Acordes y tablaturas para guitarra

Acordes y Tablaturas
Usuario: Password:

Buscar:
Acordes y Tablaturas >> Letra C >> Acordes de Canciones populares >> Pajaro campana
Tablatura de Pajaro campana, Canciones populares

Pajaro campana

Canciones populares






Es una vercion adaptada para guitarra, muy dificil de
tocar. En realidad esta vercion pertenece a un tal Felix Perez Castro.
Encontre la parrtitura en una pagina de brazil y la bajé 6 mediotonos
porque algunas notas estaban en la quinta octava y quedaban fuera del diapason.
Si alguien quiere la partitura original o el archivo Midi, contacteneme al mail.
Espero que nadie sea tan loko como pa´ponerce a tocar esta animalada,
pero si alguno tiene semejantes cojones porfa cuenteme como le fue.
                                  PAJAROCAMPANA


(D G D G B E) - En esta afinacion

  tiempo=107
 compas=2/4


|--9--16--|--9--16--|-9--16--|-9--16--|--9--16--|
|---------|---------|--------|--------|---------|
|---------|---------|--------|--------|---------|
|---------|---------|--------|--------|---------|
|---------|---------|--------|--------|---------|
|-11------|-11------|-6------|-6------|-11------|



|--9-16--9-16-|-8-16-8-16-|-8-16-8-16-|--9-16--9-16---|
|-------------|-----------|-----------|---------------|
|-------------|-----------|-----------|---------------|
|-------------|-----------|-----------|---------------|
|-------------|-----------|-----------|---------------|
|-11----11----|-6----6----|-6----6----|-11----11------|



|--9-16--9-16-|----16----14-|-4-13----11-|--9------|
|-------------|-------------|------------|--9------|
|-------------|-17----15----|------------|-10------|
|-------------|-------------|------16----|---------|
|-------------|-------------|------13----|---------|
|-11----11----|-18----------|-6----------|-11------|



|--8---(8)------|------------8--9-|--------------|
|--9---(9)---18-|-18-19---18---11-|-14-13--13----|
|-10--(10)---18-|-18-20---18------|-15-13--13----|
|---------------|-----------------|--------------|
|---------------|-----------------|-13-----------|
|-11--(11)------|-18---------6----|--------------|



|------------6-4-|----------|------------8--9-|
|-13-14---13-7-6-|-7-6---18-|-18-19---18---11-|
|-13-15---13-----|-8-6---18-|-18-20---18------|
|----------------|-6--------|-----------------|
|-13-------------|-----6----|-----------------|
|------------6---|----------|-18---------6----|



|-8--9-6-8-|-4-6---4-|--------------|------------8--9--|
|-9-11-7-9-|-6-7-7-6-|-6-6-(6)---18-|-18-19---18---11--|
|----------|-----8---|-6-6-(6)---18-|-18-20---18-------|
|-6--------|-6-------|--------------|------------------|
|----------|---------|-6------------|------------------|
|------6---|-----6---|--------------|-18---------6-----|



|-------------|------------6-4-|--------------|
|-14-13--13---|-13-14---13-7-6-|-7-6-(6)---18-|
|-15-13--13---|-13-15---13-----|-8-6-(6)---18-|
|-------------|----------------|--------------|
|-13----------|-13-------------|-6------------|
|-------------|------------6---|--------------|


|------------8--9-|-8--16-16---16-|---14-13-11-|--9------|
|-18-19---18---11-|---------------|---11-------|--9------|
|-18-20---18------|---------------|------13-11-|-10------|
|-----------------|---------------|------------|---------|
|-----------------|---------------|-1----------|---------|
|-18---------6----|-6--18---------|------------|-11------|



|-------------|-4-------|---------|---------|--9-11-13-14-|
|-------------|-4-------|-9-------|-9-------|-------------|
|-------------|---------|-8-------|-6-------|-------------|
|-11-13-15-16-|---6---6-|---6---6-|---6---6-|-------------|
|-------------|---------|---------|-6---6---|-------------|
|-11----------|-6---6---|-6---6---|---------|-11----------|



|-16--------|-16--------|-16--------|--9-11-13-14--|
|-16--------|-16--------|-18--------|--------------|
|-17------1-|-17------1-|-18--------|--------------|
|-----------|-----------|---------6-|--------------|
|-------1---|-------1---|-------6---|--------------|
|----18-----|----18-----|----18-----|-11-----------|


|-16--------|-16----16----|-16----16----|-16----16----|-16----------|
|-16--------|-16----16----|-18----18----|-18----18----|-16----19----|
|-17------1-|-17----17----|-18----18----|-18----18----|-17----20----|
|-----------|-------------|-------------|-------------|-------22----|
|-------1---|-------------|-------------|-------------|-------------|
|----18-----|----18----18-|----18----18-|----18----18-|----18----18-|



|-16----16----|---16-16-16-|-13-16-16-16-|---16-16-16--|
|-16----16----|---18-18-18-|----18-18-18-|---16-16-16--|
|-17----17----|------------|-------------|---17-17-17--|
|-------------|------------|-------------|-------------|
|-------------|-6----------|-------------|-1-----------|
|----18----18-|------16----|-11----18----|------18-----|



|---16-16-16-|-13-16-16-16-|-13-16-16-16-|
|---16-16-16-|-14-18-18-18-|-14-18-18-18-|
|---17-17-17-|----18-18-18-|----18-18-18-|
|------------|-------------|-------------|
|-1----------|-------------|-------------|
|------18----|-11----18----|-11----18----|



|----------16----------14-|----------13----------11-|--9----13-13--|
|-------16----------14----|-------14----------13----|--9----14-14--|
|----17----------15-------|----13----------11-------|-10-----------|
|-------------16----------|-15----------13----------|-11-----------|
|-------------------------|-------------------------|--------------|
|-18----------------------|-------------------------|--------------|



|------------8--9-|--------------------|------------6-4-|
|-18-19---18---11-|-14-13-(13)---13-13-|-13-14---13-7-6-|
|-18-20---18------|-15-13-(13)---13-13-|-13-15---13-----|
|-----------------|--------------------|----------------|
|-----------------|-13-----------------|-13-------------|
|-18---------6----|--------------------|------------6---|



|-----------------|-13-14---13-8--9-|-8--9-6-8-|
|-7-6-(6)---18-18-|-14-16---14---11-|-9-11-7-9-|
|-8-6-(6)---18-18-|-----------------|----------|
|-----------------|-----------------|-6--------|
|-6---------------|-----------------|----------|
|-----------------|-11---------6----|------6---|


  E E E E   Q  +S  S  S  S    S  S S  S E  E
|-4-6---4-|----------------|------------8--9-|
|-6-7-7-6-|-6--(6)---18-18-|-18-19---18---11-|
|-----8---|-6--(6)---18-18-|-18-20---18------|
|-6-------|----------------|-----------------|
|---------|-6--(6)---------|-----------------|
|-----6---|----------------|-18---------6----|


   S  Q   S  S S   S  S S S E E   E E +S  S  S  S
|----------------|-8--9---8-6-4-|-----------------|
|-14-13--13-13---|-9-11---9-7-6-|-7-6-(6)---18-18-|
|-15-13--13-13---|--------------|-8-6-(6)---18-18-|
|----------------|----------6---|-----------------|
|-13-------------|--------------|-6---------------|
|----------------|-6------------|-----------------|


   S  S S  S E  E   Q  S  S S  S    S  S S  S S  S S  S
|------------8--9-|-8----16---16-|-16-14---13---13---11-|
|-18-19---18---11-|-9------------|----------------------|
|-18-20---18------|--------------|----------------------|
|-----------------|-6------------|----------------------|
|-----------------|--------------|------------1---------|
|-18---------6----|----6---------|-18-------------------|



|---------|-16------|----11-16--|--------|
|-14------|-18------|-----------|--------|
|---------|-18------|-----------|--------|
|---------|---------|-----------|--------|
|---------|---------|-1---------|-1------|
|-11------|---------|-------18--|--------|



|----9-16--|-16------|----11-16--|----11-16--|
|----------|---------|-----------|-----------|
|----------|-18------|-----------|-----------|
|----------|-18------|-----------|-----------|
|-6--------|---------|-1---------|-1---------|
|------18--|-18------|-------18--|-------18--|


|----9-16--|---------|-----------|---------|------------|
|----------|-21------|-21--------|-21------|-21---------|
|----------|-18------|-----18----|-20------|-----18-----|
|----------|---------|-----------|-18------|------------|
|-6--------|-18------|--------6--|---------|--------6---|
|------18--|-18------|-18--------|-18------|-18---------|



|---------|----11-16--|-16--16--|-----------------|
|-21------|-----------|-16--16--|-------1-2-4-6-7-|
|-20------|-----------|---------|---1-3-----------|
|-18------|-----------|-18--18--|-----------------|
|---------|-1---------|---------|-1---------------|
|-18------|-------18--|-18--18--|-----------------|



|-----4-(4)---|---4-6-8-9-11-13-14-|-16--------|
|-9-4---------|--------------------|-----------|
|-------------|--------------------|-----------|
|-6-----------|-6------------------|-----18----|
|-------------|--------------------|-----------|
|-------------|--------------------|-----18----|


|-16------|-16------|-16------|---4-16----|---4-16----|
|---------|---------|---------|-----------|-----------|
|---------|---------|---------|-----------|-----------|
|-----18--|-----18--|-----18--|--------18-|--------18-|
|---------|---------|---------|-1---------|-1---------|
|-----18--|-----18--|-----18--|-----18----|-----18----|



|---4-16----|---4-16----|---4-------|----------|
|-----------|-----------|-----19----|----------|
|-----------|-----------|-----------|---1---1--|
|--------18-|--------18-|--------18-|----------|
|-1---------|-1---------|-1---------|-1---1----|
|-----18----|-----18----|-----18----|----------|



|--9------|-----8-11-16--|-16----------------|-----8-11-16--|
|---------|--------------|----16-------------|--------------|
|---------|--------------|-------17----------|---1----------|
|---------|---6----------|-------------------|--------------|
|---------|--------------|-------------------|-1------------|
|-11------|-6------------|----------18-(18)--|--------------|



|-16----------------|-16----------16-----------|
|----16-------------|----16----------16--------|
|-------17----------|-------17----------17-----|
|-------------------|--------------------------|
|-------------------|--------------------------|
|----------18-(18)--|----------18----------18--|



|----------16----------16-|-16------|-20----20----|
|-------16----------16----|-16------|-21----21----|
|----17----------17-------|-17------|-20----20----|
|-------------------------|---------|-------------|
|-------------------------|---------|-------------|
|-18----------18----------|-18------|----18----18-|



|-21----21----|--9--16--|--9--16--|-9--16--|-9--16----|
|-18----18----|---------|---------|--------|----------|
|-18----18----|---------|---------|--------|----------|
|-------------|---------|---------|--------|----------|
|-------------|---------|---------|--------|----------|
|----18----18-|-11------|-11------|-6------|-6--------|


|--9--16--|--9-16--9-16-|-8-16-8-16-|-8-16-8-16-|--9-16--9-16-|
|---------|-------------|-----------|-----------|-------------|
|---------|-------------|-----------|-----------|-------------|
|---------|-------------|-----------|-----------|-------------|
|---------|-------------|-----------|-----------|-------------|
|-11------|-11----11----|-6----6----|-6----6----|-11----11----|



|--9-16--9-16-|----16----14-|-4-13----11-|--9-------|
|-------------|-------------|------------|--9-------|
|-------------|-17----15----|------------|-10-------|
|-------------|-------------|------16----|----------|
|-------------|-------------|------13----|----------|
|-11----11----|-18----------|-6----------|-11-------|



|--8---(8)------|------------8--9-|-------------|
|--9---(9)---18-|-18-19---18---11-|-14-13--13---|
|-10--(10)---18-|-18-20---18------|-15-13--13---|
|---------------|-----------------|-------------|
|---------------|-----------------|-13----------|
|-11--(11)------|-18---------6----|-------------|



|------------6-4-|----------|------------8--9-|-8--9-6-8-|
|-13-14---13-7-6-|-7-6---18-|-18-19---18---11-|-9-11-7-9-|
|-13-15---13-----|-8-6---18-|-18-20---18------|----------|
|----------------|-6--------|-----------------|-6--------|
|-13-------------|-----6----|-----------------|----------|
|------------6---|----------|-18---------6----|------6---|



|-4-6---4-|--------------|------------8--9-|-------------|
|-6-7-7-6-|-6-6-(6)---18-|-18-19---18---11-|-14-13--13---|
|-----8---|-6-6-(6)---18-|-18-20---18------|-15-13--13---|
|-6-------|--------------|-----------------|-------------|
|---------|-6------------|-----------------|-13----------|
|-----6---|--------------|-18---------6----|-------------|



|------------6-4-|--------------|------------8--9---|
|-13-14---13-7-6-|-7-6-(6)---18-|-18-19---18---11---|
|-13-15---13-----|-8-6-(6)---18-|-18-20---18--------|
|----------------|--------------|-------------------|
|-13-------------|-6------------|-------------------|
|------------6---|--------------|-18---------6------|



|-8--16-16---16-|---14-13-11-|--9------|-------------|
|---------------|---11-------|--9------|-------------|
|---------------|------13-11-|-10------|-------------|
|---------------|------------|---------|-11-13-15-16-|
|---------------|-1----------|---------|-------------|
|-6--18---------|------------|-11------|-11----------|



|-4-------|---------|---------|--9-11-13-14--|
|-4-------|-9-------|-9-------|--------------|
|---------|-8-------|-6-------|--------------|
|---6---6-|---6---6-|---6---6-|--------------|
|---------|---------|-6---6---|--------------|
|-6---6---|-6---6---|---------|-11-----------|


  -|
|-16--------|-16--------|-18--------|-------------|-16--------|
|-17------1-|-17------1-|-18--------|-------------|-17------1-|
|-----------|-----------|---------6-|-------------|-----------|
|-------1---|-------1---|-------6---|-------------|-------1---|
|----18-----|----18-----|----18-----|-11----------|----18-----|



|-16----16----|-16----16----|-16----16----|-16-----------|
|-16----16----|-18----18----|-18----18----|-16----19-----|
|-17----17----|-18----18----|-18----18----|-17----20-----|
|-------------|-------------|-------------|-------22-----|
|-------------|-------------|-------------|--------------|
|----18----18-|----18----18-|----18----18-|----18----18--|



|-16----16----|---16-16-16-|-13-16-16-16-|---16-16-16-|---16-16-16-|
|-16----16----|---18-18-18-|----18-18-18-|---16-16-16-|---16-16-16-|
|-17----17----|------------|-------------|---17-17-17-|---17-17-17-|
|-------------|------------|-------------|------------|------------|
|-------------|-6----------|-------------|-1----------|-1----------|
|----18----18-|------16----|-11----18----|------18----|------18----|



|-13-16-16-16-|-13-16-16-16-|----------16----------14---|
|-14-18-18-18-|-14-18-18-18-|-------16----------14------|
|----18-18-18-|----18-18-18-|----17----------15---------|
|-------------|-------------|-------------16------------|
|-------------|-------------|---------------------------|
|-11----18----|-11----18----|-18------------------------|



|----------13----------11-|--9----13-13-|------------8--9-|
|-------14----------13----|--9----14-14-|-18-19---18---11-|
|----13----------11-------|-10----------|-18-20---18------|
|-15----------13----------|-11----------|-----------------|
|-------------------------|-------------|-----------------|
|-------------------------|-------------|-18---------6----|



|--------------------|------------6-4-|-----------------|
|-14-13-(13)---13-13-|-13-14---13-7-6-|-7-6-(6)---18-18-|
|-15-13-(13)---13-13-|-13-15---13-----|-8-6-(6)---18-18-|
|--------------------|----------------|-----------------|
|-13-----------------|-13-------------|-6---------------|
|--------------------|------------6---|-----------------|



|-13-14---13-8--9-|-8--9-6-8-|-4-6---4-|
|-14-16---14---11-|-9-11-7-9-|-6-7-7-6-|
|-----------------|----------|-----8---|
|-----------------|-6--------|-6-------|
|-----------------|----------|---------|
|-11---------6----|------6---|-----6---|



|----------------|------------8--9-|----------------|
|-6--(6)---18-18-|-18-19---18---11-|-14-13--13-13---|
|-6--(6)---18-18-|-18-20---18------|-15-13--13-13---|
|----------------|-----------------|----------------|
|-6--(6)---------|-----------------|-13-------------|
|----------------|-18---------6----|----------------|



|-8--9---8-6-4-|-----------------|------------8--9-|
|-9-11---9-7-6-|-7-6-(6)---18-18-|-18-19---18---11-|
|--------------|-8-6-(6)---18-18-|-18-20---18------|
|----------6---|-----------------|-----------------|
|--------------|-6---------------|-----------------|
|-6------------|-----------------|-18---------6----|



|-8----16---16-|-16-14---13---13---11-|----------|
|-9------------|----------------------|-14-------|
|--------------|----------------------|----------|
|-6------------|----------------------|----------|
|--------------|------------1---------|----------|
|----6---------|-18-------------------|-11-------|



|-16------|----11-16--|--------|----9-16--|-16------|
|-18------|-----------|--------|----------|---------|
|-18------|-----------|--------|----------|-18------|
|---------|-----------|--------|----------|-18------|
|---------|-1---------|-1------|-6--------|---------|
|---------|-------18--|--------|------18--|-18------|



|----11-16--|----11-16--|----9-16--|----------|
|-----------|-----------|----------|-21-------|
|-----------|-----------|----------|-18-------|
|-----------|-----------|----------|----------|
|-1---------|-1---------|-6--------|-18-------|
|-------18--|-------18--|------18--|-18-------|



|-----------|---------|-----------|---------|
|-21--------|-21------|-21--------|-21------|
|-----18----|-20------|-----18----|-20------|
|-----------|-18------|-----------|-18------|
|--------6--|---------|--------6--|---------|
|-18--------|-18------|-18--------|-18------|



|----11-16--|-16--16--|-----------------|-----4-(4)----|
|-----------|-16--16--|-------1-2-4-6-7-|-9-4----------|
|-----------|---------|---1-3-----------|--------------|
|-----------|-18--18--|-----------------|-6------------|
|-1---------|---------|-1---------------|--------------|
|-------18--|-18--18--|-----------------|--------------|



|---4-6-8-9-11-13-14-|-16------|-16------|-16------|
|--------------------|---------|---------|---------|
|--------------------|---------|---------|---------|
|-6------------------|-----18--|-----18--|-----18--|
|--------------------|---------|---------|---------|
|--------------------|-----18--|-----18--|-----18--|



|-16------|---4-16----|---4-16----|---4-16------|
|---------|-----------|-----------|-------------|
|---------|-----------|-----------|-------------|
|-----18--|--------18-|--------18-|--------18---|
|---------|-1---------|-1---------|-1-----------|
|-----18--|-----18----|-----18----|-----18------|



|---4-16----|---4-------|---------|--9------|
|-----------|-----19----|---------|---------|
|-----------|-----------|---1---1-|---------|
|--------18-|--------18-|---------|---------|
|-1---------|-1---------|-1---1---|---------|
|-----18----|-----18----|---------|-11------|



|-----8-11-16--|-16----------------|-----8-11-16----|
|--------------|----16-------------|----------------|
|--------------|-------17----------|---1------------|
|---6----------|-------------------|----------------|
|--------------|-------------------|-1--------------|
|-6------------|----------18-(18)--|----------------|



|-16----------------|-16----------16----------|
|----16-------------|----16----------16-------|
|-------17----------|-------17----------17----|
|-------------------|-------------------------|
|-------------------|-------------------------|
|----------18-(18)--|----------18----------18-|



|----------16----------16-|-16------|-20----20----|-21----21----|
|-------16----------16----|-16------|-21----21----|-18----18----|
|----17----------17-------|-17------|-20----20----|-18----18----|
|-------------------------|---------|-------------|-------------|
|-------------------------|---------|-------------|-------------|
|-18----------18----------|-18------|----18----18-|----18----18-|

Fuente original: LaCuerda
Colaborador original: juan [[email protected]]

Que te parecio? Calificalo con estrellas!!

Rating: 6.9/10 (363 votos)

Este fichero es trabajo propio de su transcriptor y representa su interpretación personal de la canción. El material contenido en esta página es para exclusivo uso privado, por lo que se prohibe su reproducción o retransmisión, así como su uso para fines comerciales.


Deja tus comentarios:
Letras de canciones | Musica Independiente