Acordes y tablaturas para guitarra

Acordes y Tablaturas
Usuario: Password:

Buscar:
Acordes y Tablaturas >> Letra C >> Acordes de Canciones populares >> Mi buenaventura
Tablatura de Mi buenaventura, Canciones populares

Mi buenaventura

Canciones populares






Por Cristhian

Guitarra




E||--------------------|--------0---------|--------------------|
B||--------0--3--------|-----1------------|--------0--3--------|
G||-----1--------5--4--|--2---------------|-----1--------5--4--|
D||--2-----------------|-------------2----|--2-----------------|
A||--------------------|--0-----3---------|--------------------|
E||--0--------4--------|------------------|--0--------4--------|



------------------|--------------------|--------0---------|--0--0----2--4----|
------------------|--------0--3--1--0--|-----1------------|--3-------3-------|
--2---------------|-----1--------------|--2---------------|--4-------4-------|
-----2------------|--2-----------------|-------------2----|----------2-------|
--0-----3----0----|--------------------|--0-----3---------|------------------|
------------------|--0--------4--------|------------------|--0---------------|



--5--------4--------|--3--------2--------||---------------------|
--5--------5--------|--5--------5--------||---1--1-----1-----1--|
-----5-----------5--|-----5-----5-----5--||*--------2-----2-----|
--------------------|--------------------||*-----2--------------|
--------0-----0-----|--------0-----0-----||---------3-----0-----|
--------------------|--------------------||---------------------|



-------------0--3--|-------0---------|-----------------|--3--3--3--3--3--5--|
----1-----1--------|-------1---------|----1------------|--------------------|
-------2-----------|-------0---------|----0------------|--------------------|
----2--------------|----2------------|----2------------|-----2--------------|
-------3-----0-----|-------3---------|-------3---------|--------3-----------|
-------------------|------------3----|------------3----|--------------3-----|



----4--5--4--0-----|-----------------|------------------||---3--3--3--3--3----|
----3-----------3--|-------1---------|------------------||---5--------5-------|
----4--------------|-----------------|-----------------*||*--5--------4-------|
----2--------------|----2------------|----2------------*||*-------------------|
-------2-----------|-------3----0----|-------3----0-----||---3----------------|
-------------------|-----------------|------------------||--------------------|



--3--0--3-------3--|--3--1----5--3----|--0----------------||---0----------0--|
--1-------------1--|--0-------3-------|--1----------------||---1-------------|
--2--------1-------|--0-------4-------|--0---------------*||*--0-------------|
-------------------|------------------|-----2------------*||*----------------|
--3----------------|------------------|--------3----------||---3-------------|
-------------------|----------3-------|-------------3-----||-----------------|



--0--4--0--0-----0--|----0----------0--|--0-----------------|
--------------3-----|----0-------------|-----3--1--3-----0--|
--------------------|----1-------------|--------------------|
--------------------|----2-------------|-----2--------------|
--------------------|-------2----------|--------2-----------|
--------------------|------------0-----|--------------0-----|



-------------0--0--|--4-----0--0-----0--|----0----------0--|
--1----------------|--------------3-----|------------------|
-------------------|--------------------|------------------|
-----2-------------|-----2--------------|----2-------------|
--------3----0-----|--------3-----------|-------2----------|
-------------------|--------------0-----|------------0-----|



--0-----------------|-------------------||--------------------|
-----3--1--3-----0--|--1----------------||--------0--3--------|
--------------------|------------------*||-----1--------5--4--|
-----2--------------|-------2----------*||--2-----------------|
--------2-----------|----------3----0---||--------------------|
--------------0-----|-------------------||--0--------4--------|



--------0---------|--------------------|------------------|--------------------|
-----1------------|--------0--3--------|------------------|--------0--3--1--0--|
--2---------------|-----1--------5--4--|--2---------------|-----1--------------|
-------------2----|--2-----------------|-----2------------|--2-----------------|
--0-----3---------|--------------------|--0-----3----0----|--------------------|
------------------|--0--------4--------|------------------|--0--------4--------|



--------0---------|--0--0----2--4----|--5------------||
-----1------------|--3-------3-------|--5------------||
--2---------------|--4-------4-------|--5------------||
-------------2----|----------2-------|--4------------||
--0-----3---------|------------------|--0------------||
------------------|--0---------------|---------------||

Fuente original: LaCuerda
Colaborador original: Cristhian R.Chavarro E. [[email protected]]

Que te parecio? Calificalo con estrellas!!

Rating: 3.7/10 (39 votos)

Este fichero es trabajo propio de su transcriptor y representa su interpretación personal de la canción. El material contenido en esta página es para exclusivo uso privado, por lo que se prohibe su reproducción o retransmisión, así como su uso para fines comerciales.


Deja tus comentarios:
Letras de canciones | Musica Independiente