Enviado por:
anonimo

Camila, Mientes

HOLA QUE TAL A QUI LES DEJO ESTA ROLA QUE ME LA PIDIO UN BRO

EL BAJO EMPIEZA CON LA BATERIA CUANDO LA LETRA DE LA CANCION DICE ESOTO

 no eres la persona ue pense que crei

 ACORDES  F#
G)----------------------------------------------------------------------
D)----------------------------------------------------------------------
A)----------------------------------------------------------------------
E)------22222222222222222222222-----------------------------------------


  CORO1
   mientes me haces daño y luego te arrepientes

  ACORDES C#,A#m,F#,G#
G)----------------------------------------------------------------------
D)----------------------------------------------------------------------
A)-4-44-4-44------------------------------------------------------------
E)-----------6-66-6-66-2-22-2-22-4-4------------------------------------


 coro2
   llegas cuando estoy apunto de olv   )
                                       )  F#
  ACORDES  C#,A#m,F#,G#                ) que hoy estoy mejor sin ti
G)-------------------------------------)--------------------------------
D)-------------------------------------)--------------------------------
A)-4-44-4-44---------------------------)--------------------------------
E)----------6-66-6-66-2-22-2-23444444--)---2----------------------------




  VERSO 2
  voy de nuevo recordando l oque soy

  ACORDES G#,Eb,G#,F#
G)----------------------------------------------------------------------
D)-------6-------------6-------------6----------------------------------
A)---6/8-----------6/8-----------6/8------------------------------------
E)-4--------2-22--4------2-22--4--------2/14----------------------------


 VERSO 3
 y el tiempo hiso lo suyo y comprendi
  ACORDES G#,Eb,G#,F#
G)----------------------------------------------------------------------
D)-------6-------------6-------------6----------------------------------
A)---6/8-----------6/8-----------6/8------------------------------------
E)-4--------2-22--4------2-22--4--------2222222222/14-------------------



  CORO
   mientes me haces daño y luego te arrepientes

  ACORDES C#,A#m,F#,G#
G)----------------------------------------------------------------------
D)----------------------------------------------------------------------
A)-4-44-4-44------------------------------------------------------------
E)-----------6-66-6-66-2-22-2-22-4-4------------------------------------

coro2
   llegas cuando estoy apunto de olv

  ACORDES  C#,A#m,F#,G#
G)-----------------------------------------------------------------------
D)-----------------------------------------------------------------------
A)-4-44-4-44-------------------------------------------------------------
E)----------6-66-6-66-2-22-2-23444444/16---------------------------------


  QUE HOY ESTOY MEJOR SIN TI

  ACORDES F#,A#m,F#,G#,A#m,
G)----------------------------------------------------------------------
D)----------------------------------------------------------------------
A)----------------------------------------------------------------------
E)-2-2222-2-2-2222-6-6666-6-6-6666-2-222222-44444/16-66666666-----------

   LLEGAS, CUANDO ESTOY APUNTO DE OLVIDARTE
 ACORDES C#,A#m,F#,G#
G)----------------------------------------------------------------------
D)----------------------------------------------------------------------
A)-4/0------------------------------------------------------------------
E)---------6-66-6-66-2-22-2-22-4-44-------------------------------------



  QUE HOY ESTOY MEJOR SIN TI

 ACORDES F#,G#,A#m,F#
G)----------------------------------------------------------------------
D)----------------------------------------------------------------------
A)----------------------------------------------------------------------
E)--2-246-6-222222222---------------------------------------------------

    FIN DE LA CANCION

ESTA ROLA ES DE DICADA PEARA EL COMPA ahilud yahair reyes bravo
que fue el we que me pidio esta rola

y ya saben cual quier sujerencia u opinion aganmela llegar
ami correo

[email protected]
Aviso: Este fichero es trabajo propio de su transcriptor y representa su interpretación personal de la canción. El material contenido en esta página es para exclusivo uso privado, por lo que se prohibe su reproducción o retransmisión, así como su uso para fines comerciales.

Califica esta canción


Comentarios en Facebook