Enviado por:
Anonimo








Canciones Populares, Himno Nacional Mexicano

Imprimir
Guitarra
                                                              
E||------------------|------------------|------------------0-|
B||------------------|------------------|--------------1-----|
G||------------------|------------------|--------------------|
D||------------------|------------------|--------------------|
A||------------------|------------------|--------------------|
E||------------------|------------------|--------------------|


                                                                          
--3----3---3-3----3-5-7-|--8-------------------|-------------------------|
------------------------|-----------8----------|-------------------8---8-|
------------------------|----------------9---9-|--7----9---9-10----------|
------------------------|----------------------|-------------------------|
------------------------|----------------------|-------------------------|
------------------------|----------------------|-------------------------|


                                                                        
-----------------8---8-|--7----6---6-5----4---4-|--3----8--------5---7-|
-----------------------|------------------------|----------------------|
--9--------------------|------------------------|----------------------|
-------10--------------|------------------------|----------------------|
-----------------------|------------------------|----------------------|
-----------------------|------------------------|----------------------|


                                                                         
--8----0-----3----1-0---|---------------0---3-|--8----8---8-8----8---10-|
-----------6----------3-|--1------------------|-------------------------|
------------------------|---------------------|-------------------------|
------------------------|---------------------|-------------------------|
------------------------|---------------------|-------------------------|
------------------------|---------------------|-------------------------|


                                                                           
--12------10--8----8---8-|--8-----------------------|---------------3---3-|
-------------------------|-----------10-8-----------|---------------------|
-------------------------|-------9-----------10-9-7-|--5------------------|
-------------------------|--------------------------|---------------------|
-------------------------|--------------------------|---------------------|
-------------------------|--------------------------|---------------------|


                                                                             
--3----3--10--8--7--5--7--|--8-------------------|-----------5--5--3--7---5-|
--------------------------|-----------8--------8-|--8---6-6-----------------|
--------------------------|----------------9-----|--------------------------|
--------------------------|----------------------|--------------------------|
--------------------------|----------------------|--------------------------|
--------------------------|----------------------|--------------------------|


                                                                             
--3------1--0----3---3-|--3----3--10--8--7--5--7--|--8-----12--------10--8--|
-----------------------|--------------------------|-----8-------------------|
-----------------------|--------------------------|-------------------------|
-----------------------|--------------------------|-------------------------|
-----------------------|--------------------------|-------------------------|
-----------------------|--------------------------|-------------------------|


                                                                            
--7--8-7-6--7--10----8------|---------------------|------------------------|
-------------------------10-|--8------------8---8-|--8----8---8-8----8---9-|
----------------------------|---------------------|------------------------|
----------------------------|---------------------|------------------------|
----------------------------|---------------------|------------------------|
----------------------------|---------------------|------------------------|


                                                                            
--6----11------------6-|--6---4-4--8--8--6--10---8-|--6-------4-3----3---3-|
-----------------8-----|---------------------------|-----------------------|
-----------------------|---------------------------|-----------------------|
-----------------------|---------------------------|-----------------------|
-----------------------|---------------------------|-----------------------|
-----------------------|---------------------------|-----------------------|


                                                                              
--4--3----3--4--3----3--|--8------10--11----8---8-|--8-----------------------|
------------------------|-------------------------|--------------6--------6--|
------------------------|-------------------------|-----8--8---8------8------|
------------------------|-------------------------|--------------------------|
------------------------|-------------------------|--------------------------|
------------------------|-------------------------|--------------------------|


                                                                           
-------7----8----10----|--11--8--7--8--10----8---8--|---------------------|
--8--------------------|-------------------------7--|--8----------------5-|
-----------------------|----------------------------|---------------5-----|
-----------------------|----------------------------|---------------------|
-----------------------|----------------------------|---------------------|
-----------------------|----------------------------|---------------------|


                                                                          
--3----3---3-3----3-5-7-|--8-------------------|-------------------------|
------------------------|-----------8----------|-------------------8---8-|
------------------------|----------------9---9-|--7----9---9-10----------|
------------------------|----------------------|-------------------------|
------------------------|----------------------|-------------------------|
------------------------|----------------------|-------------------------|


                                                                        
-----------------8---8-|--7----6---6-5----4---4-|--3----8--------5---7-|
-----------------------|------------------------|----------------------|
--9--------------------|------------------------|----------------------|
-------10--------------|------------------------|----------------------|
-----------------------|------------------------|----------------------|
-----------------------|------------------------|----------------------|


                                                                         
--8----0-----3----1-0---|---------------0---3-|--8----8---8-8----8---10-|
-----------6----------3-|--1------------------|-------------------------|
------------------------|---------------------|-------------------------|
------------------------|---------------------|-------------------------|
------------------------|---------------------|-------------------------|
------------------------|---------------------|-------------------------|


                                                                           
--12------10--8----8---8-|--8-----------------------|---------------3---3-|
-------------------------|-----------10-8-----------|---------------------|
-------------------------|-------9-----------10-9-7-|--5------------------|
-------------------------|--------------------------|---------------------|
-------------------------|--------------------------|---------------------|
-------------------------|--------------------------|---------------------|


                                                                             
--3----3--10--8--7--5--7--|--8-------------------|-----------5--5--3--7---5-|
--------------------------|-----------8--------8-|--8---6-6-----------------|
--------------------------|----------------9-----|--------------------------|
--------------------------|----------------------|--------------------------|
--------------------------|----------------------|--------------------------|
--------------------------|----------------------|--------------------------|


                                                                             
--3------1--0----3---3-|--3----3--10--8--7--5--7--|--8-----12--------10--8--|
-----------------------|--------------------------|-----8-------------------|
-----------------------|--------------------------|-------------------------|
-----------------------|--------------------------|-------------------------|
-----------------------|--------------------------|-------------------------|
-----------------------|--------------------------|-------------------------|


                                                                            
--7--8-7-6--7--10----8------|---------------------|------------------------|
-------------------------10-|--8------------8---8-|--8----8---8-8----8---9-|
----------------------------|---------------------|------------------------|
----------------------------|---------------------|------------------------|
----------------------------|---------------------|------------------------|
----------------------------|---------------------|------------------------|


                                                                            
--6----11------------6-|--6---4-4--8--8--6--10---8-|--6-------4-3----3---3-|
-----------------8-----|---------------------------|-----------------------|
-----------------------|---------------------------|-----------------------|
-----------------------|---------------------------|-----------------------|
-----------------------|---------------------------|-----------------------|
-----------------------|---------------------------|-----------------------|


                                                                              
--4--3----3--4--3----3--|--8------10--11----8---8-|--8-----------------------|
------------------------|-------------------------|--------------6--------6--|
------------------------|-------------------------|-----8--8---8------8------|
------------------------|-------------------------|--------------------------|
------------------------|-------------------------|--------------------------|
------------------------|-------------------------|--------------------------|


                                                                           
-------7----8----10----|--11--8--7--8--10----8---8--|---------------------|
--8--------------------|-------------------------7--|--8----------------5-|
-----------------------|----------------------------|---------------5-----|
-----------------------|----------------------------|---------------------|
-----------------------|----------------------------|---------------------|
-----------------------|----------------------------|---------------------|


                                                                          
--3----3---3-3----3-5-7-|--8-------------------|-------------------------|
------------------------|-----------8----------|-------------------8---8-|
------------------------|----------------9---9-|--7----9---9-10----------|
------------------------|----------------------|-------------------------|
------------------------|----------------------|-------------------------|
------------------------|----------------------|-------------------------|


                                                                        
-----------------8---8-|--7----6---6-5----4---4-|--3----8--------5---7-|
-----------------------|------------------------|----------------------|
--9--------------------|------------------------|----------------------|
-------10--------------|------------------------|----------------------|
-----------------------|------------------------|----------------------|
-----------------------|------------------------|----------------------|


                                                                         
--8----0-----3----1-0---|---------------0---3-|--8----8---8-8----8---10-|
-----------6----------3-|--1------------------|-------------------------|
------------------------|---------------------|-------------------------|
------------------------|---------------------|-------------------------|
------------------------|---------------------|-------------------------|
------------------------|---------------------|-------------------------|


                                                                           
--12------10--8----8---8-|--8-----------------------|---------------3---3-|
-------------------------|-----------10-8-----------|---------------------|
-------------------------|-------9-----------10-9-7-|--5------------------|
-------------------------|--------------------------|---------------------|
-------------------------|--------------------------|---------------------|
-------------------------|--------------------------|---------------------|


                                                                             
--3----3--10--8--7--5--7--|--8-------------------|-----------5--5--3--7---5-|
--------------------------|-----------8--------8-|--8---6-6-----------------|
--------------------------|----------------9-----|--------------------------|
--------------------------|----------------------|--------------------------|
--------------------------|----------------------|--------------------------|
--------------------------|----------------------|--------------------------|


                                                                             
--3------1--0----3---3-|--3----3--10--8--7--5--7--|--8-----12--------10--8--|
-----------------------|--------------------------|-----8-------------------|
-----------------------|--------------------------|-------------------------|
-----------------------|--------------------------|-------------------------|
-----------------------|--------------------------|-------------------------|
-----------------------|--------------------------|-------------------------|


                                                                            
--7--8-7-6--7--10----8------|---------------------|------------------------|
-------------------------10-|--8------------8---8-|--8----8---8-8----8---9-|
----------------------------|---------------------|------------------------|
----------------------------|---------------------|------------------------|
----------------------------|---------------------|------------------------|
----------------------------|---------------------|------------------------|


                                                                            
--6----11------------6-|--6---4-4--8--8--6--10---8-|--6-------4-3----3---3-|
-----------------8-----|---------------------------|-----------------------|
-----------------------|---------------------------|-----------------------|
-----------------------|---------------------------|-----------------------|
-----------------------|---------------------------|-----------------------|
-----------------------|---------------------------|-----------------------|


                                                                              
--4--3----3--4--3----3--|--8------10--11----8---8-|--8-----------------------|
------------------------|-------------------------|--------------6--------6--|
------------------------|-------------------------|-----8--8---8------8------|
------------------------|-------------------------|--------------------------|
------------------------|-------------------------|--------------------------|
------------------------|-------------------------|--------------------------|


                                                                           
-------7----8----10----|--11--8--7--8--10----8---8--|---------------------|
--8--------------------|-------------------------7--|--8----------------5-|
-----------------------|----------------------------|---------------5-----|
-----------------------|----------------------------|---------------------|
-----------------------|----------------------------|---------------------|
-----------------------|----------------------------|---------------------|


                                                                          
--3----3---3-3----3-5-7-|--8-------------------|-------------------------|
------------------------|-----------8----------|-------------------8---8-|
------------------------|----------------9---9-|--7----9---9-10----------|
------------------------|----------------------|-------------------------|
------------------------|----------------------|-------------------------|
------------------------|----------------------|-------------------------|


                                                                        
-----------------8---8-|--7----6---6-5----4---4-|--3----8--------5---7-|
-----------------------|------------------------|----------------------|
--9--------------------|------------------------|----------------------|
-------10--------------|------------------------|----------------------|
-----------------------|------------------------|----------------------|
-----------------------|------------------------|----------------------|


                                                                         
--8----0-----3----1-0---|---------------0---3-|--8----8---8-8----8---10-|
-----------6----------3-|--1------------------|-------------------------|
------------------------|---------------------|-------------------------|
------------------------|---------------------|-------------------------|
------------------------|---------------------|-------------------------|
------------------------|---------------------|-------------------------|


                                                                           
--12------10--8----8---8-|--8-----------------------|---------------3---3-|
-------------------------|-----------10-8-----------|---------------------|
-------------------------|-------9-----------10-9-7-|--5------------------|
-------------------------|--------------------------|---------------------|
-------------------------|--------------------------|---------------------|
-------------------------|--------------------------|---------------------|


                                                                             
--3----3--10--8--7--5--7--|--8-------------------|-----------5--5--3--7---5-|
--------------------------|-----------8--------8-|--8---6-6-----------------|
--------------------------|----------------9-----|--------------------------|
--------------------------|----------------------|--------------------------|
--------------------------|----------------------|--------------------------|
--------------------------|----------------------|--------------------------|


                                                                             
--3------1--0----3---3-|--3----3--10--8--7--5--7--|--8-----12--------10--8--|
-----------------------|--------------------------|-----8-------------------|
-----------------------|--------------------------|-------------------------|
-----------------------|--------------------------|-------------------------|
-----------------------|--------------------------|-------------------------|
-----------------------|--------------------------|-------------------------|


                                                                            
--7--8-7-6--7--10----8------|---------------------|------------------------|
-------------------------10-|--8------------8---8-|--8----8---8-8----8---9-|
----------------------------|---------------------|------------------------|
----------------------------|---------------------|------------------------|
----------------------------|---------------------|------------------------|
----------------------------|---------------------|------------------------|


                                                                            
--6----11------------6-|--6---4-4--8--8--6--10---8-|--6-------4-3----3---3-|
-----------------8-----|---------------------------|-----------------------|
-----------------------|---------------------------|-----------------------|
-----------------------|---------------------------|-----------------------|
-----------------------|---------------------------|-----------------------|
-----------------------|---------------------------|-----------------------|


                                                                              
--4--3----3--4--3----3--|--8------10--11----8---8-|--8-----------------------|
------------------------|-------------------------|--------------6--------6--|
------------------------|-------------------------|-----8--8---8------8------|
------------------------|-------------------------|--------------------------|
------------------------|-------------------------|--------------------------|
------------------------|-------------------------|--------------------------|


                                                                           
-------7----8----10----|--11--8--7--8--10----8---8--|---------------------|
--8--------------------|-------------------------7--|--8----------------5-|
-----------------------|----------------------------|---------------5-----|
-----------------------|----------------------------|---------------------|
-----------------------|----------------------------|---------------------|
-----------------------|----------------------------|---------------------|


                                                                          
--3----3---3-3----3-5-7-|--8-------------------|-------------------------|
------------------------|-----------8----------|-------------------8---8-|
------------------------|----------------9---9-|--7----9---9-10----------|
------------------------|----------------------|-------------------------|
------------------------|----------------------|-------------------------|
------------------------|----------------------|-------------------------|


                                                                        
-----------------8---8-|--7----6---6-5----4---4-|--3----8--------5---7-|
-----------------------|------------------------|----------------------|
--9--------------------|------------------------|----------------------|
-------10--------------|------------------------|----------------------|
-----------------------|------------------------|----------------------|
-----------------------|------------------------|----------------------|


                                                                         
--8----0-----3----1-0---|---------------0---3-|--8----8---8-8----8---10-|
-----------6----------3-|--1------------------|-------------------------|
------------------------|---------------------|-------------------------|
------------------------|---------------------|-------------------------|
------------------------|---------------------|-------------------------|
------------------------|---------------------|-------------------------|


                                                                          
--12------10--8----8---8-|--8-----------------------|-------------------||
-------------------------|-----------10-8-----------|-------------------||
-------------------------|-------9-----------10-9-7-|--5----------------||
-------------------------|--------------------------|-------------------||
-------------------------|--------------------------|-------------------||
-------------------------|--------------------------|-------------------||

Fuente original: LaCuerda
Colaborador original: Francisco Javier Noriega Rangel [[email protected]]
Aviso: Este fichero es trabajo propio de su transcriptor y representa su interpretación personal de la canción. El material contenido en esta página es para exclusivo uso privado, por lo que se prohibe su reproducción o retransmisión, así como su uso para fines comerciales.

Califica esta canción


Comentarios en Facebook