Acordes y tablaturas para guitarra

Acordes y Tablaturas
Usuario: Password:

Buscar:
Acordes y Tablaturas >> Letra C >> Acordes de Camilo sesto >> Melina
Tablatura de Melina, Camilo sesto

Melina

Camilo sesto






pa que no se te corran los acordes ni los punteos debes ocupar
la fuente: Courier New

                        == MELINA ==
                        Camilo Sesto

=INTRO=
  Dm               Gm      A7                     A
E-------------------------------------------------9-10-9-10-9--------
B-10-8-----------8-10-8--8-10-11-10-11-10-11-10-11-----------11-10-8-
G-----10-9-7-9-10------10--------------------------------------------
D--------------------------------------------------------------------
A--------------------------------------------------------------------
E--------------------------------------------------------------------

  Dm               Gm      A7                     A
E-------------------------------------------------9-10-9-10-9--------
B-10-8-----------8-10-8--8-10-11-10-11-10-11-10-11-----------11-10-8-
G-----10-9-7-9-10------10--------------------------------------------
D--------------------------------------------------------------------
A--------------------------------------------------------------------
E--------------------------------------------------------------------

=ESTROFA 1.1=
 Dm
 ERES FUEGO DE AMOR, LUZ DEL SOL, VOLCÁN Y TIERRA,
                          A7
 POR DONDE PASAS... DEJAS HUELLA...

        A          A7
E--9-10-12-10-9-10-12-10-9-------------
B-------------------------11-10-8------
G--------------------------------10-9--
D--------------------------------------
A--------------------------------------
E--------------------------------------

   Dm       Gm            Dm         Gm           Dm
 MUJER TÚ NACISTE PARA QUERER, HAS LUCHADO POR VOLVER
      Gm               A
 A TU TIERRA Y CON TU GENTE...

=PRECORO=
              Gm               A            Dm
 HAS VUELTO MELINA... ALZA TUS MANOS HACIA DIÓS,
          Gm       A7       A#     A
 QUÉ EL ESCUCHE TU VOZ, LARARAIRARARA...
              Gm                  A          Dm
 HAS VUELTO MELINA... TUS OJOS REFLEJAN EL DOLOR
      A#       A7       Gm     A
 Y TU ALMA EL AMOR, LARARAIRARARA...

=CORO=
    Dm                       Gm          A7
 LA HUELLA DE TU CANTO HECHO RAÍCES... MELINA
    Dm                     Gm           A7
 Y VUELVEN A REÍR TUS OJOS TRISTES... MELINA
 Dm              Gm   A#  A7
 RARARARARARARARARAIRARARARA...

=ESTROFA 2.1=
 Dm              Gm         Dm            Gm           Dm
 VIDA... AY TU RAZÓN ES TU PAÍS, DONDE EL MAR SE HIZO GRIS,
           Gm              A
 DONDE EL LLANTO AHORA ES CANTO...

*Se repite =PRECORO=*
*Se repite =CORO=*

 Dm              Gm   A#  A   A7  A
 RARARARARARARARARAIRARARARA... MELINA...
 Dm              Gm   A#  A   A7  A
 RARARARARARARARARAIRARARARA... MELINA...


Hola, me llamo Rodrigo, soy chileno, soy un cantante aficionado,
si tienes dudas, las que sean sobre esta canción, escríbeme a
[email protected] y un Saludo pal: Marco, Joc, Aarón, Karen,
Yesleine, Pamela, Maluto, Roerto, KuroChan, Lord Caoz, Chika Denisse,
a mi primo Jonathan (Sweet Revenge), a Jocelyn, a la Laura y a la
Claudita...

       +EN MEMORIA DE MI HERMANITA ANDREA SUSANA MUÑOZ ALARCÓN+
               (*Abril 20,1989 - Diciembre 10,2004+)
          Que el Señor te tenga en su gloria hermanita mía

                     Que el Señor les Bendiga
Abril 1, 2005                                  ...El último romántico
==========================www.aplicale.tk============================

Fuente original: LaCuerda
Colaborador original: Rodrigo, el Último Romántico. [[email protected]]

Que te parecio? Calificalo con estrellas!!

Rating: 6.6/10 (58 votos)

Este fichero es trabajo propio de su transcriptor y representa su interpretación personal de la canción. El material contenido en esta página es para exclusivo uso privado, por lo que se prohibe su reproducción o retransmisión, así como su uso para fines comerciales.


Deja tus comentarios:

Letras de Camilo sesto
Letras de canciones | Musica Independiente