Enviado por:
anonimo








Reik, Como Te Imaginé

Imprimir
HOLA A TODOS AQUI LES DEJO ESTA TRANSCRIPCION QUE ESTA MUY BUENA
ESTA CANCION SE LA QUIERO DEDICAR A UNA PERSONA

                   MUY ESPECIAL PARA MI

              (SILVIA) TTTTQQQQMMMM c/d + Y +

          ESPERO TE GUSTE, LA LETRA LO DICE TODO

AQUI VA..........

ACORDES
     Cm   G#   D#   A#   Fm
e----3----4----3----1----1----|  NOTA: Para hacerlo mas facil la cancion
B----4----4----4----3----1----|     pueden ponerle un capo en el primer
G----5----5----3----3----1----|     traste ojo que cambiaria la forma de
D----5----6----5----3----3----|     pisar los acordes Ejemplo ya no tienen
A----3----6----X----1----3----|     que hacer G# solo G en Cm Bm etc.
E----X----4----X----X----1----|

INTRO:

    Cm        G#         D#         A#
e----------------------------------------------------|
B-------4---------4----------4----------3------------|
G---------5---------5------3---3----------3----------|
D-----5---------6--------5----------3----------------|
A---3---------------------------------1--------------|
E-------------4--------------------------------------|
    Cm        G#         D#         A#
e----------------------------------------------------|
B-------4---------4----------4------3----------------|
G---------5---------5------3---3----3----------------|
D-----5---------6--------5----------3----------------|
A---3-------------------------------1----------------|
E-------------4--------------------------------------|

EST.1

  D#                 G#
e------------------------------------------|
B-----4---------4---------4---------4------|
G---3---3-----3---3---------5---------5----|
D-5---------5-----------6---------6--------|
A------------------------------------------|
E---------------------4---------4----------|
 Sabes  no pido nada  más   que estar entre tus

   D#                     G#         Cm            Fm         D#
e-------------------------------------------------------------------|
B-----4----------4------------4----------4-------------1----------4----|
G---3---3------3---3------------5----------5-------------1------3---3--|
D-5----------5--------------6----------5-------------3--------5--------|
A------------------------------------3---------------------------------|
E-------------------------4------------------------1-------------------|
 brazos y huir de todo el mal q`ah todo e  renunciado

               A#
e----------------------|
B-----4--------3-------|
G---3---3------3-------|
D-5------------3-------|
A--------------1-------|
E----------------------|
por estar junto a ti...

EST.2

   D#               G#
Sabes no dejo de pensar
               D#
que estoy enamorado
                G#
te quiero confesar
    Cm             Fm      D#
que soy solo un esclavo
        A#
que no sabe vivir sin ti


CORO

Cm     G#       D#
Cuando llegaste tú
      A#         Cm
te metiste en mi ser
      G#      D#
Encendiste la luz
       A#      Fm
me llenaste de fe
                 G#
tanto tiempo busque
                    Fm
pero al fin te encontré
        D#        A#
tan perfecta como te imagine nou nouoouuoo


Cm     G#           D#
Como aguja en un pajar
       A#       Cm
te busque sin cesar
      G#           D#
como huella en el mar
     A#         Fm
tan difícil de hallar
                 G#
tanto tiempo busque
                    Fm
pero al fin te encontré
         D#          A#
tan perfectaaaa como te imagine


    Cm        G#         D#         A#
e----------------------------------------------------|
B-------4---------4----------4----------3------------|
G---------5---------5------3---3----------3----------|
D-----5---------6--------5----------3----------------|
A---3---------------------------------1--------------|
E-------------4--------------------------------------|
    Cm        G#         D#         A#
e----------------------------------------------------|
B-------4---------4----------4------3----------------|
G---------5---------5------3---3----3----------------|
D-----5---------6--------5----------3----------------|
A---3-------------------------------1----------------|
E-------------4--------------------------------------|


EST. 3

 D#                  G#
sabes te quiero confesar
                        D#
que te encuentro irresistible
              G#
no dejo de pensar
     Cm          Fm       D#
que haría lo imposible
        A#
por quedarme cerca de ti


CORO

Cm     G#       D#
Cuando llegaste tú
      A#         Cm
te metiste en mi ser
      G#      D#
Encendiste la luz
       A#      Fm
me llenaste de fe
                 G#
tanto tiempo busque
                    Fm
pero al fin te encontré
        D#        A#
tan perfecta como te imagine nou nouououo


Cm     G#           D#
Como aguja en un pajar
       A#       Cm
te busque sin cesar
      G#           D#
como huella en el mar
       A#         Fm
tan difícil de hallar
                 G#
tanto tiempo busque
                    Fm
pero al fin te encontré
         D#          A#
tan perfectaaaa como te imagine


    Cm        G#         D#         A#
e----------------------------------------------------|
B-------4---------4----------4------3----------------|
G---------5---------5------3---3----3----------------|
D-----5---------6--------5----------3----------------|
A---3-------------------------------1----------------|
E-------------4--------------------------------------|

FINAL
                                RASGUEOS SUAVES HACIA ABAJO
                               |---------------------------|
  D#                  G#       |G#          A#    D#
e-------------------------------4-----------1-----2--------|
B-----4---------4---------4-----4-----------3-----3--------|
G---3---3-----3---3---------5---5-----------3-----2--------|
D-5---------5-----------6-------6-----------3-----0--------|
A----------------------------------------------------------|
E---------------------4------------------------------------|
 sabes  no pido nada   mas que estar entre tus   brazos


ESPERO LES HAYA GUSTADO Y LES SIRVA PARA MI Q ESTA MUY
BUENA SUGERENCIAS CORRECCIONES AMENASAS BUENO ESO NO
A MI CORREO
[email protected]
                     ======A-B-R-A-H-A-M======
Aviso: Este fichero es trabajo propio de su transcriptor y representa su interpretación personal de la canción. El material contenido en esta página es para exclusivo uso privado, por lo que se prohibe su reproducción o retransmisión, así como su uso para fines comerciales.

Califica esta canción


Comentarios en Facebook