Enviado por:
anonimo

Enanitos Verdes, Mariposas

Imprimir
Intro
G|------------------------------|
D|------------------------------|
A|--22-245-----24-55-5----------|
E|---------33-3-------55-5------|  x2

Fig. 1
Yo daria lo mejor de mi vida por estar con vos
G|------------------------------|
D|------------------------------|
A|--22-245-----24-55-5----------|
E|---------33-3-------55-5------|  x2

No es tan cierto q yo vivo como kiero, mas bien hago lo que puedo
G|-----------------------------------------|
D|--------------------44-420---------------|
A|--22-245-----24-55-5-------22-245--------|
E|---------33-3----------------------------|

Viviendo a la sombra de tu amor
G|----------------------------|
D|--------------000000--------|
A|------42-00-0---------------|
E|--33-3----------------------|

Fig.1 Otra vez

Coro.
Si te vas no tengo nada
G|------------------------------|
D|------------------------------|
A|--22-245-----24-55-5----------|
E|---------33-3-------55-5------|  x2

O quizás no habré crecido, dejando mariposas escapar
G|------------------------------------------------|
D|----------------44-420------------------000000--|
A|--22-245-----45-------22-245-----42-00-0--------|
E|---------33-3----------------33-3---------------|

Después sigue asi:
Intro…..x2
Fig.1….x1
Coro…..x2


Dejando mariposas escapar……..
G|----------------------------|
D|--------------000000--------|
A|------42-00-0---------------|
E|--33-3----------------------|  x2

Comentarios o sugerencias a mi correo o msn porfavor

Saludos pal grupo bravo y parador d ZN PROPIEDAD
y toa la gent d tacna q gusta d los enanitos verdes
Aviso: Este fichero es trabajo propio de su transcriptor y representa su interpretación personal de la canción. El material contenido en esta página es para exclusivo uso privado, por lo que se prohibe su reproducción o retransmisión, así como su uso para fines comerciales.

Califica esta canción


Comentarios en Facebook