Enviado por:
Anonimo

Callejeros, Rebelde, Agitador Y Revolucionario

Imprimir
Intro:

e|-(4)--(5)--(2)--(5)--------|
B|-(5)--(5)--(2)--(5)--------|
G|-(6)--(6)--(3)--(6)--------|
D|-(6)--(7)--(4)--(7)--------|
A|-(4)--(7)--(4)--(7)--------|
E|------(5)--(2)--(5)--------|


----------------------------------------------------------------------

INTRO C#m A F# A

E                                                                  C#m
hoy me sacrifican como un cerdo por no estar de acuerdo
          B               G#m
con conservas y militares
e|------------------------------------------|----------------------|
B|------------------------------------------|-------------(4)------|
G|-------------------------8br-6----6-------|-------------(3)------|
D|--6666666666--4-2-4-6v---------10---10-6v-|-9-8-6-4-(2)----------|
A|------------------------------------------|----------------------|
E|------------------------------------------|----------------------|
     A                             E
por no querer altares de oro y sangre
me acusan de rebelde, agitador y revolucionario
por no pensar lo mismo y decirlo
que los que abusan de mi gente a diario


----------------------------------------------------------------------

C#m
cae el agua desde el cielo
A
sobre un mar de desconsuelo
F#
se hace eterno este silencio
A                     E
lleno de real desolación
---------------------------------------------------------------------
      B              A
mi madre, me llamo Jesús
             E                 B
y hoy mi pueblo me llora en la cruz
A           E       B               A
pero, van a ver, un día todo cambiará
            E              B
habra una iglesia q comprendera
       A                  E
al reprimido y no al represor
          B                A
y será honesta como lo fui yo


     B          A        E
e|-7-7-7-7-|-5-5-5-5-|-7-7-7-7-|
B|-7-7-7-7-|-5-5-5-5-|-9-9-9-9-|
G|---------|---------|---------|
D|---------|---------|---------|
A|---------|---------|---------|
E|---------|---------|---------|

    A      E
e|---------------|
B|-----------(4)-|
G|-----------(3)-|
D|-2-4--(2)------|
A|-0-0-----------|
E|---------------|
             E-A E A E F# A
o tal vez no.
---------------------------------------------------------------------------


e|-----------------------|--------------------|---------------------------|
B|-----------------------|--------------------|----------------4------(4)-|
G|-----------------------|--8br-6----6--------|---9---8---6---4-------(3)-|
D|--6666666666--4-2-4-6v-|--------10----6v----|-/9--9--/6--/4---(2)-------|
A|-----------------------|--------------------|---------------------------|
E|-----------------------|--------------------|---------------------------|

e|-----------------------|--------------------|---------------------|
B|-----------------------|--------------------|---------------------|
G|-----------------------|--8br-6----6--------|---------------------|
D|--6666666666--4-2-4-6v-|--------10----6v----|-------------7-(6v)--|
A|-----------------------|--------------------|-7777777-5-7---------|
E|-----------------------|--------------------|---------------------|

---------------------------------------------------------------------------

C#m
la espina ya esta clavada
A
no hay perdon para el que aplasta
F#
contando una sola historia
A                                  E
a los q no encuentran solución


----------------------------------------------------------------------------



      B              A
mi madre, me llamo Jesús
             E                 B
y hoy mi pueblo me llora en la cruz
A           E       B               A
pero, van a ver, un día todo cambiará
            E              B
habra una iglesia q comprendera
       A                  E
al reprimido y no al represor
          B                A
y será honesta como lo fui yo

     B          A        E
e|-7-7-7-7-|-5-5-5-5-|-7-7-7-7-|
B|-7-7-7-7-|-5-5-5-5-|-9-9-9-9-|
G|---------|---------|---------|
D|---------|---------|---------|
A|---------|---------|---------|
E|---------|---------|---------|

    A      E
e|---------------|
B|-----------(4)-|
G|-----------(3)-|
D|-2-4--(2)------|
A|-0-0-----------|
E|---------------|
             E-A E A E F# A
o tal vez no.


------------------------------------------------------------------------

e|-(4)--(5)--(2)--(5)--------|
B|-(5)--(5)--(2)--(5)--------|
G|-(6)--(6)--(3)--(6)--------|
D|-(6)--(7)--(4)--(7)--------|
A|-(4)--(7)--(4)--(7)--------|
E|------(5)--(2)--(5)--------|


no olvidar siempre resistir...

el ghetto del rey

Fuente original: LaCuerda
Colaborador original: Pablito Gabriel [[email protected]]
Aviso: Este fichero es trabajo propio de su transcriptor y representa su interpretación personal de la canción. El material contenido en esta página es para exclusivo uso privado, por lo que se prohibe su reproducción o retransmisión, así como su uso para fines comerciales.

Califica esta canción


Comentarios en Facebook