Enviado por: Anonimo
Agrandar Letra
Reducir Letra
Imprimir











Callejeros, Prohibido

PROHIBIDO
Esta es una propia corrección del tema. Le hice algunas modificaciones.
Ahora esta joya.
Antes que nada, las notas que están bien juntas son los arreglos que 
mete todo el tiempo el bajista de Callejeros, las puse juntas para que se den cuenta.
Dudas: como siempre a [email protected]

INTRO
G|--------------------------------------------------------------------
D|---------------------532---2-3-3h5-3-2------------------------------ x2
A|---55---4—5~--54—3-3-------------------3----------------------------
E|------7------------------3~-----------------------------------------

VERSO
G|--------------------------------------------------------------------
D|----23532---23532----45754---45754----532---23532-----45-5h7-5-4---- x2
A|-------------------5-------5--------3--------------5-5------------5-
E|--3-------3--------------------------------3------------------------

G|--------------------------------------------------------------------
D|--------------2-3-3h5-3-2------------------------------------------- x2
A|--5x—-3x------------------3-----------------------------------------
E|----------3-3-------------------------------------------------------

ESTRIBILLO
G|--------------------------------------------------------------------
D|---------------------532---2-3-3h5-3-2------------------------------ x2
A|---55---4—5~--54—3-3-------------------3----------------------------
E|------7------------------3~-----------------------------------------

G|--------------------------------------------------------------------
D|-----23532-------------------4-5-5h7-5-4----------------------------
A|---3---------532----235--5-5-------------5--------------------------
E|------------3-----3-------------------------------------------------

SOLO 2:17
G|--------------------------------------------------------------------
D|----23532---23532----45754---45754----532---23532-----45-5h7-5-4----
A|-------------------5-------5--------3--------------5-5------------5-
E|--3-------3--------------------------------3------------------------

G|-----------------------------------------------------4-5-4----------
D|---23532---23532----45754---45754--------------4-5-7-------7-5------
A|------------------5-------5--------3-3-------5----------------------
E|--3------3------------------------------3-3-------------------------

FINAL 3:17
G|----------------------------------------------------------------------
D|----------------------------------------------------------------------
A|--3-2-----------------------------------------------------------------
E|------5-3-3-----------------------------------------------------------

Fuente original: LaCuerda
Colaborador original: Gonzalo Mari [[email protected]]
Aviso: Este fichero es trabajo propio de su transcriptor y representa su interpretación personal de la canción. El material contenido en esta página es para exclusivo uso privado, por lo que se prohibe su reproducción o retransmisión, así como su uso para fines comerciales.

Califica esta canción


Comentarios en Facebook