Acordes y tablaturas para guitarra

Acordes y Tablaturas
Usuario: Password:

Buscar:
Acordes y Tablaturas >> Letra C >> Acordes de Callejeros >> Prohibido
Tablatura de Prohibido, Callejeros

Prohibido

Callejeros






INTRO: D-C-G |x2
e|--------------------------------------10--|
B|-------8-7v----7-7---7-------8-7----------|
G|-7-9-7-------------9---9-7-9-----9-7-9----|
D|------------------------------------------|
A|------------------------------------------|
E|------------------------------------------|

e|---10--14-12-14-10----10-12-14-12-14-10---10-12-14-12-10-10/17-17-17-15---14b-12-14b-12--10--|
B|---------------------------------------------------------------------------------------------|
G|---------------------------------------------------------------------------------------------|
D|---------------------------------------------------------------------------------------------|
A|---------------------------------------------------------------------------------------------|
E|---------------------------------------------------------------------------------------------|

--------------------------------------------------------------------------------------------------------------------------
e|-5-5---5--5--3--3--3-3------------------------------|
B|-7-7---5--5--5--5--3-3------------------------------|
G|-7-7---5--5--5--5--6-6--7---------------------------|
D|-7-7---7--7--5--5--5-5--7----4-5-4-----4-5-4--------|
A|-5-5---7--7--3--3--5-5--5--5-------5--5------5------|
E|-------5--5--------3-3------------------------------|
D-Am-C-G-D
esta mal, no te toques mas
la marihuana no hace bien, es muy mala te hace ver otra realidad.

te vas a atar, a la fidelidad
homosexual es una mala palabra no es de gente normal.

--------------------------------------------------------------------------------------------------------------------------
E|-5-5-------------------------8--8-7-8-7--8--8-7-8-7--|
B|-5-5--------------8--8--8--8-------------------------|
G|-5-5-----5-5-5-5--7--7--7--7-------------------------|
D|-7-7-----5-5-5-5--5--5--5--5-------------------------|
A|-7-7-----3-3-3-3-------------------------------------|
E|-5-5-------------------------------------------------|

Am-C-G
decis orgia y gritan pornografia no lo intentes cantar jamas
esta vida debe ser sostenida con total seriedad.
--------------------------------------------------------------------------------------------------------------------------

E|------------------------------------------8--8-7-8-7--8--8-7-8-7--|
B|-------------------------------8--8--8--8-------------------------|
G|----------------------5-5-5-5--7--7--7--7-------------------------|
D|--4-5-4----4-5-4------5-5-5-5--5--5--5--5-------------------------|
A|-5------5-5------5----3-3-3-3-------------------------------------|
E|------------------------------------------------------------------|


D-C-G
no escucho y sigo porque mucho de lo esta prohibido me hace vivir
no me persigo porque mucho de lo que esta prohibido me hace feliz.

--------------------------------------------------------------------------------------------------------------------------

Am                    Bm                      D
lo reprimido cuando esta cautivo te pide salir.


--------------------------------------------------------------------------------------------------------------------------
D-Am-C-G-D
no pasas, te vestis muy mal
no comprometas mi trabajo muchacho correte para atras.

sexo oral, entre papa y mama
esa secuencia con frecuencia la pienso pero ellos nunca lo haran.

--------------------------------------------------------------------------------------------------------------------------

Am-C-G
muchas manzanas son las que hoy y mañana se cruzan y se van a cruzar
y en algunas se encuentra lo que algunos llaman felicidad.

--------------------------------------------------------------------------------------------------------------------------

D-C-G
no escucho y sigo porque mucho de lo esta prohibido me hace vivir
no me persigo porque mucho de lo que esta prohibido me hace feliz.

--------------------------------------------------------------------------------------------------------------------------

Am                    Bm                      D
lo reprimido cuando esta cautivo te pide salir.

--------------------------------------------------------------------------------------------------------------------------

SOLO: D-Am-C-G-D X2

--------------------------------------------------------------------------------------------------------------------------

Am-C-G
muchas manzanas son las que hoy y mañana se cruzan y se van a cruzar
y en algunas se encuentra lo que algunos llaman felicidad.

--------------------------------------------------------------------------------------------------------------------------

D-C-G
no escucho y sigo porque mucho de lo esta prohibido me hace vivir
no me persigo porque mucho de lo que esta prohibido me hace feliz.

--------------------------------------------------------------------------------------------------------------------------
Am                    Bm                      D
lo reprimido cuando esta cautivo te pide salir.





el ghetto del rey

Fuente original: LaCuerda
Colaborador original: Pablito Gabriel [[email protected]]

Que te parecio? Calificalo con estrellas!!

Rating: 6.6/10 (151 votos)

Este fichero es trabajo propio de su transcriptor y representa su interpretación personal de la canción. El material contenido en esta página es para exclusivo uso privado, por lo que se prohibe su reproducción o retransmisión, así como su uso para fines comerciales.


Deja tus comentarios:

Letras de Callejeros
Letras de canciones | Musica Independiente