Enviado por:
Anonimo

Callejeros, Palo Borracho

Imprimir
Esta es una propia corrección del tema. Le hice algunas modificaciones.
Ahora esta joya.

INTRO
G|----------------------------|-----------------------------------------
D|----9-7-6-------------------|-----9-7-6-------------------------------
A|-------------6-7-9--0-7-----|--7x-----------6-7-9—0x-7x---------------
E|--0--------7------------7-7-|-----------7-7--------------7x-----------

VERSO
G|-------------------------------------8h9-9-8-6------------------------
D|-----9-7-6------------------------------------------------------------
A|--7x------------6-7-9-7-6—0x-7x---------------------------------------
E|------------7-7------------------7x-----------------------------------

G|-------------------------------------9-8-6----------------------------
D|-----9-7-6---------------------------------9--------------------------
A|--7x------------6-7-9-7-6—0x-7x---------------------------------------
E|------------7-7------------------7x-----------------------------------

ESTRIBILLO
G|----------------------------------------------------------------------
D|----------------------------------------------------------------------X2
A|-7-7-7-0-0-0-----------9-7-6------------------------------------------
E|-------------7-7-7---7------------------------------------------------

G|----------------------------------------------------------------------
D|---------22---------2x------------------------------------------------
A|-0-0-0-0----0----2x---------------------------------------------------
E|--------------2x------------------------------------------------------

SOLO 1:44
G|----------------------------------------------------------------------
D|----6-7-9-------------------------------------------------------------X2
A|--7x---------6-7-9—0x-------------------------------------------------
E|----------7x-----------7x---------------------------------------------

PARTE LENTA 2:23
G|------------------------------8h9-9-8-6-------------------------------
D|-----9-7-6------------------------------------------------------------
A|--7~------------6-7-9--0-7--------------------------------------------
E|--------------7------------7------------------------------------------

G|------------------------------11-13-11-9------------------------------
D|-----9-7-6------------------------------------------------------------
A|--7~------------6-7-9--0-7--------------------------------------------
E|--------------7------------7------------------------------------------

FINAL 3:15
G|----------------------------------------------------------------------
D|----------------------------------------------------------------------X4
A|-----0x-7x------------------------------------------------------------
E|--7x------------------------------------------------------------------

G|----------------------------------------------------------------------
D|----------------------------------------------------------------------
A|----0-7---7/19--------------------------------------------------------
E|--7-----7-------------------------------------------------------------

Fuente original: LaCuerda
Colaborador original: Gonzalo Mari [[email protected]]
Aviso: Este fichero es trabajo propio de su transcriptor y representa su interpretación personal de la canción. El material contenido en esta página es para exclusivo uso privado, por lo que se prohibe su reproducción o retransmisión, así como su uso para fines comerciales.

Califica esta canción


Comentarios en Facebook