Enviado por:
Anonimo

Callejeros, Ilusion

Imprimir
Intro:

e|-----|--------------------|--------------------|
B|-----|--------------------|--------------------|
G|-----|--------------------|--------------------|
D|-9-9-|-9-9--7-7--6-6--4-4-|-9-9--7-7--6-6--4-4-|
A|-7-7-|-7-7--5-5--4-4--2-2-|-7-7--5-5--4-4--2-2-|
E|-----|--------------------|--------------------|

       E5         G#5         A5                 B5
Mi ilusión, era entrar en tu caja y poder despertar.
       E5       G#5                A5                 B5
Mi pasión, es poder encontrar un espejo en tu mentalidad.

        E5                 G#5               A5                B5
e|-----------------|-----------------|-----------------|-----------------|--|
B|-----------------|-----------------|-----------------|-----------------|--|
G|-----------------|-----------------|-----------------|-----------------|x2|
D|-----------------|-----------------|-----------------|-2-2-2-2-2-2-2-2-|--|
A|-2-2-2-2-2-2-2-2-|-4-4-4-4-4-4-4-4-|-5-5-5-5-5-5-5-5-|-4-4-4-4-4-4-4-4-|--|
E|-0-0-0-0-0-0-0-0-|-6-6-6-6-6-6-6-6-|-7-7-7-7-7-7-7-7-|-----------------|--|


PUENTE:

[E5 - G#5 - A5 - B5]


        E5               G#5              A5                 B5
Y hoy estoy inquieto en este lugar, con tu aliento y mi soledad.
        E5        G#5                  A5                        B5
Mi existir es viajar por tu oído y gritarte siempre, que hay verdad.


ESTRIBILLO:

        A5     B5       C#5                  A
Sin tu voz caeré, no podré ilusionarme otra vez.
           F#5                    E5
Porque el fuego que une nuestras almas,
     A5                B5
morirá cuando deje de ver.

         A5                 B5               C#5               A5
e|-----------------|-----------------|-----------------|-----------------|
B|-----------------|-----------------|-----------------|-----------------|
G|-----------------|-----------------|-----------------|-----------------|
D|-----------------|-2-2-2-2-2-2-2-2-|-6-6-6-6-6-6-6-6-|-----------------|
A|-7-7-7-7-7-7-7-7-|-4-4-4-4-4-4-4-4-|-4-4-4-4-4-4-4-4-|-7-7-7-7-7-7-7-7-|
E|-5-5-5-5-5-5-5-5-|-----------------|-----------------|-5-5-5-5-5-5-5-5-|

        F#5                E5                 A5               B5
e|-----------------|-----------------|-----------------|-----------------|
B|-----------------|-----------------|-----------------|-----------------|
G|-----------------|-----------------|-----------------|-----------------|
D|-----------------|-----------------|-----------------|-2-2-2-2-2-2-2-2-|
A|-4-4-4-4-4-4-4-4-|-2-2-2-2-2-2-2-2-|-7-7-7-7-7-7-7-7-|-4-4-4-4-4-4-4-4-|
E|-2-2-2-2-2-2-2-2-|-0-0-0-0-0-0-0-0-|-5-5-5-5-5-5-5-5-|-----------------|


PUENTE


       E5        G#5      A5                 B5
Y si llego a mi fin intentando, seré un vencedor.
             E5      G#5        A5                  B5
Porque es mejor intentar que morirse sin sentir tu voz.


ESTRIBILLO


C#5          F#5               E5
Y cuando un día ese fuego se apague,
     A5        C#5         D5      C#5              A5    B5
quedará el recuerdo en tu pecho de haber sentido calor.


E5      G#5         A5               B5
Mi ilusión, es la ilusa que ve salvación.
E5      G#5          A5                   B5
Mi ilusión es mi estrella, mi Dios, mi razón.


ESTRIBILLO x2

PUENTE x2

INTRO x2

Fin en E5

Fuente original: LaCuerda
Colaborador original: Juan Diego Young [[email protected]]
Aviso: Este fichero es trabajo propio de su transcriptor y representa su interpretación personal de la canción. El material contenido en esta página es para exclusivo uso privado, por lo que se prohibe su reproducción o retransmisión, así como su uso para fines comerciales.

Califica esta canción


Comentarios en Facebook