Enviado por:
Anonimo

Callejeros, El Nudo

Imprimir
INTRO:

e|------2h3-2-0----------------------2h3-2-0------/5-3-2----|
B|------3-3-3-3----------------------3-3-3-3-------------5--|
G|------2-2-2-2---(2)-2/4-6-4-2------2-2-2-2--(2)-----------|
D|--(0)-0-0-0-0---(2)------------(0)-0-0-0-0--(2)-----------|
A|----------------(0)-------------------------(0)-----------|
E|----------------------------------------------------------|

e|------------------------------------------------------------------------------|
B|-------2-3----------2-3-2-5------2-3-2----------------------------------(10)--|
G|-(4)-4----4-2-(4)-4--------(4)-4-------0-2-(4)--0-2-(4)-4-4/9--11-9-11-9------|
D|------------------------------------------------------------------------------|
A|------------------------------------------------------------------------------|
E|------------------------------------------------------------------------------|

PRIMER VERSO :

e|-----2h2-0--------------------2h3-0----------------------------------------------5---------------|
B|-----3-3-3--------------------3-3-3----------------7-5-(3)--7-5-3-2-3-(5)--5-5/7---7-5-----------|
G|-----2-2-2--(2)-2/4-6-4-2-----2-2-2-(2)-2/4-6-4-2--------------------------------------7-6-4-2---|
D|-(0)-0-0-0--(2)-----------(0)-0-0-0-(2)----------------------------------------------------------|
A|------------(0)---------------------(0)----------------------------------------------------------|
E|-------------------------------------------------------------------------------------------------|
     ....Un final (llano y liso final).....es lo que buscás, es lo que agitás...las noches de falsas victorias

e|------2h3-2-0----------------------2h3-2-0-------------------2h3-2-0-----/5-3-2----|
B|------3-3-3-3----------------------3-3-3-3-------------------3-3-3-3-----------5-3-|
G|------2-2-2-2---(2)-2/4-6-4-2------2-2-2-2--(2)-2/4-6-4-2----2-2-2-2--(2)----------|
D|--(0)-0-0-0-0---(2)------------(0)-0-0-0-0--(2)-----------(0)0-0-0-0--(2)----------|
A|----------------(0)-------------------------(0)-----------------------(0)----------|
E|-----------------------------------------------------------------------------------|
...terminarán....Sonreir, (solo y por placer)
e|------------------------------------------------------------------------------|
B|-----2-3----------2-3-2-5------2-3-2--------------------------------(10)------|
G|-(4)-4----4-2-(4)-4--------(4)-4-----0-2-(4)--(/4)-4-4/9--11-9-11-9-----------|
D|------------------------------------------------------------------------------|
A|------------------------------------------------------------------------------|
E|------------------------------------------------------------------------------|
....No hay tiempo ni espacio....no hay mundo ni fé...ni fé.... ni fe...

e|------------------------------------------------------|
B|------------------------------------------------------|
G|-777--7------------------------------------------(2b)-|
D|-777--7---777-7-5--7-5----------------------2-4-2-----|
A|-555--5---777-7-5--7-5----7-77777------2-4------------|
E|----------555-5-3--5-3----5-55555---------------------|
...Porque lo que empieza acaba al fin.   eeeeeeee


e|------------------------------------------------------------------------|
B|------------------------------------------------------------------------|
G|-----------------------7-7-7--------------------------------------------|
D|----7-7-7----5-5-5-----7-7-7---7-7-7---7-7-7---5-5-5---7-7-7------------|
A|----7-7-7----5-5-5-----5-5-5---7-7-7---7-7-7---5-5-5---7-7-7------------|
E|----5-5-5----3-3-3-------------5-5-5---5-5-5---3-3-3---5-5-5------------|

....La riqueza de este viaje es el cambio a esta realidad, porque si me muero es por luchar


e|-----2h2-0--------------------2h3-0----------------------------------------------5---------------|
B|-----3-3-3--------------------3-3-3----------------7-5-(3)--7-5-3-2-3-(5)--5-5/7---7-5-----------|
G|-----2-2-2--(2)-2/4-6-4-2-----2-2-2-(2)-2/4-6-4-2--------------------------------------7-6-4-2---|
D|-(0)-0-0-0--(2)-----------(0)-0-0-0-(2)----------------------------------------------------------|
A|------------(0)---------------------(0)----------------------------------------------------------|
E|-------------------------------------------------------------------------------------------------|

 o olvidar, siempre resistir...Que la idea sea el sol, que al milagro lo cambien y se haga verdad.



e|------2h3-2-0----------------------2h3-2-0-------------------2h3-2-0-----/5-3-2----|
B|------3-3-3-3----------------------3-3-3-3-------------------3-3-3-3-----------5-3-|
G|------2-2-2-2---(2)-2/4-6-4-2------2-2-2-2--(2)-2/4-6-4-2----2-2-2-2--(2)----------|
D|--(0)-0-0-0-0---(2)------------(0)-0-0-0-0--(2)-----------(0)0-0-0-0--(2)----------|
A|----------------(0)-------------------------(0)-----------------------(0)----------|
E|-----------------------------------------------------------------------------------|
                  ....ahhhh....No empezar a dejar de pensar.....



e|------------------------------------------------------------------------------|
B|------2-3----------2-3-2-5------2-3-2-------------------------------(10)------|
G|-(4)-4----4-2-(4)-4--------(4)-4-----0-2-(4)--(/4)-4-4/9--11-9-11-9-----------|
D|------------------------------------------------------------------------------|
A|------------------------------------------------------------------------------|
E|------------------------------------------------------------------------------|
....que a las masas pensando, no las venceran jamás...jamás.....


e|---------------------------------------------------|
B|---------------------------------------------------|
G|-777--7---------------------------------------(2)--|
D|-777--7---777-7-5--7-5-------------------2-4-2-----|
A|-555--5---777-7-5--7-5----7-77777-----2-4----------|
E|----------555-5-3--5-3----5-55555------------------|
...Porque lo que empieza acaba al fin.   eeeeeeee


e|------------------------------------------------------------------------|
B|------------------------------------------------------------------------|
G|-----------------------7-7-7--------------------------------------------|
D|----7-7-7----5-5-5-----7-7-7---7-7-7---7-7-7---5-5-5---7-7-7------------|
A|----7-7-7----5-5-5-----5-5-5---7-7-7---7-7-7---5-5-5---7-7-7------------|
E|----5-5-5----3-3-3-------------5-5-5---5-5-5---3-3-3---5-5-5------------|

....La riqueza de este viaje es el cambio a esta realidad, porque si me muero es por luchar


e|---------------|
B|---------------|
G|---6--6-4--(4)-|saxo
D|-7-------------|
A|---------------|
E|---------------|


e|---------------------------------|
B|---------------------------------|
G|--(4)-(4)--/(6)---(9)--(9)--/9---|
D|--(4)-(4)---------(9)--(9)-------|
A|--(2)-(2)---------(7)--(7)-------|
E|---------------------------------|
....El nudo aprieta mal, bloqueando al ideal...

e|-----------------------------|
B|-----------------------------|
G|------------------(7)-(7)----|
D|--(5)-(5)---2-----(7)-(7)----|
A|--(5)-(5)---2-----(5)-(5)----|
E|--(3)-(3)---0----------------|
...Todos los sueños se escapan en un grito....


e|---------------------------------|
B|---------------------------------|
G|--(4)-(4)--/(6)---(9)--(9)--/9---|
D|--(4)-(4)---------(9)--(9)-------|
A|--(2)-(2)---------(7)--(7)-------|
E|---------------------------------|
            
Que cielo hay que mirar?, Dónde está la verdad?
e|--------------------------------------------|
B|--------------------------------------------|
G|------------------(7)-(7)-------------------|
D|--(5)-(5)---7-7---(7)-(7)--------------7777-|
A|--(5)-(5)---7-7---(5)-(5)-------------7777--|
E|--(3)-(3)---5-5-----------------------5555--|
Cuándo la muerte se hará humanidad... humanidad?


PUNTEO:

e|----------------------------------------------|----|
B|-------10-------------------------------------|----|
G|-9/11-----9-9/(11)-11-11/14--16-14-14-12-(12)-|----|
e|----------------------------------------------|-x2-|
B|----------------------------------------------|----|
G|----------------------------------------------|----|

e|---------------------------------------------------------------------------------------------------------------(14)----|
B|------10----------------------------------------------------------------------------10---1515--15-15-15------15---(15)-|
G|-9/11-----9-9/(11)-11-11/14--16-14-14-12-11-9-7-9-11-9-7-9-7-7/9-7/11-9-7----/(7)-9----------14-14-14-14--14-----------|
D|-----------------------------------------------------------------------------------------------------------------------|
A|-----------------------------------------------------------------------------------------------------------------------|
E|-----------------------------------------------------------------------------------------------------------------------|
Porque si me voy es por luchar,y  no por mirar, me voy por luchar. Porque si me voy es por luchar, no por mirar,






TODOS CON ¨EL GHETTO DEL REY¨

Fuente original: LaCuerda
Colaborador original: Pablito Gabriel [[email protected]]
Aviso: Este fichero es trabajo propio de su transcriptor y representa su interpretación personal de la canción. El material contenido en esta página es para exclusivo uso privado, por lo que se prohibe su reproducción o retransmisión, así como su uso para fines comerciales.

Califica esta canción


Comentarios en Facebook