Enviado por:
Anonimo

Callejeros, El Lugar Perfecto

Imprimir
Este tema es bastante simple, traté de hacerlo siempre
en la misma cuerda para que le de un sonido mas parecido
al del tema, el ritmo es muy fácil de seguir.
Este tema se lo quiero dedicar a mi amigo Joaco, que yo
se que le encanta la banda.

INTRO
G|----------------------------------------------------------------------
D|----------------------------------------------------------------------
A|--7-7-7-7-6-4-2-------------------------------------------------------
E|----------------------------------------------------------------------

VERSO x8
G|----------------------------------------------------------------------
D|----------------------------------------------------------------------
A|--2x/9x-7x-7-6-4------------------------------------------------------
E|----------------------------------------------------------------------

PRIMER ESTRIBILLO
G|----------------------------------------------------------------------
D|----------------------------------------------------------------------
A|--4x----4x----4--4-2--2-0x--------------------------------------------
E|-----5x----5x--------------4x-2x--------------------------------------

VERSO x8
G|----------------------------------------------------------------------
D|----------------------------------------------------------------------
A|--2x/9x-7x-7-6-4------------------------------------------------------
E|----------------------------------------------------------------------

SEGUNDO ESTRIBILLO
G|----------------------------------------------------------------------
D|----------------------------------------------------------------------
A|--4x----4x----4--4-2--2-0x-------2x/9x-7-7-7-7-6-4--------------------
E|-----5x----5x--------------4x-2x--------------------------------------

Todo lo que pude ver
G|-------------------|
D|-------------------| x2
A|--2x/9x-7x-7-6-4---|
E|-------------------|

La locura en tu piel...
G|-------------------|
D|-------------------| x1
A|--2x/9x-7x---------|
E|-------------------|

Para Que hacer racia...
G|----------------------------------------------------------------------
D|----------------------------------------------------------------------
A|--11x-9x-11x-12x-14-14-14-12-12-12-14-14-14-12-12-12-7x---------------
E|----------------------------------------------------------------------

Si vos sos el paraíso...
G|----------------------------------------------------------------------
D|-----6-4--------------------------------------------------------------
A|--7x-----6-6--4-2-2---------------------------------------------------
E|----------------------------------------------------------------------

No no creo en milagros...
G|----------------------------------------------------------------------
D|----------------------------------------------------------------------
A|--2x/9x-7x-7-6-4---2x/9x-7-6-4-2-4~-2-2-2-----------------------------
E|----------------------------------------------------------------------

Fuente original: LaCuerda
Colaborador original: Gonzalo Mari [[email protected]]
Aviso: Este fichero es trabajo propio de su transcriptor y representa su interpretación personal de la canción. El material contenido en esta página es para exclusivo uso privado, por lo que se prohibe su reproducción o retransmisión, así como su uso para fines comerciales.

Califica esta canción


Comentarios en Facebook