Enviado por:
Anonimo

Callejeros, Callejero De Boedo

Imprimir
CALLEJEROS - CALLEJERO DE BOEDO

h= hammering
p= Pulling
b= bending



Intro

e|---------------------------------------------------------|
B|---------------------------------------------------------|
G|-----3-4-6-4-3h4p3h4p3-----------------------------------|
D|-4h5-------------------5-4-------------------------------|
A|---------------------------5-4-2-1-----------------------|
E|-----------------------------------2h3p2-----------------|

e|---------------------------------------------------------|
B|---------------------------------------------------------|
G|---------------------------------------------------------|
D|---------------------------------------------------------|
A|-----1-2-4-4s5-4-2-1h2p1h2p1h2p1-------------------------|
E|-2h3-----------------------------3-2---------------------|

Segunda parte hace punteo con distorcion estilo flamenco.*-

F# G .-x2 F#~~~~

Intro de Saxo

e|---------------------------------------------------------|
B|--11-9----------9-9----------9-11-11-9-------9-----------|
G|*------10-10-11-----11-10-11-----------11-11---11-10----*|   X2
D|*-------------------------------------------------------*|
A|---------------------------------------------------------|
E|---------------------------------------------------------|

Ahora que el cielo es cielo razo y no hay caso, no te esuchan más...
San Lorenzo va a jugar y vos no vas a poder estar.
En silencio llorarás, no hay donde puedas escapar.
Devoto no es un viaje de egresados ni el sueño dorado de mamá.
Pero peor es quedar tirado en la calle de un balazo,
sangrando sin parar.
Callejeros va a tocar la milonga que te trajo acá.
En silencio llorarás, no hay donde puedas escapar.
El infierno tiene dirección y vos la conocés bien por no sentir,
por no sentir, el calor de una mujer.


Solo de guitarra

*-Se puede utilizar la palanca para dar el vibrato (es con guagua).

e|-------------------------------6-6-6-6-------------------|
B|---------6-7-9-7-6-7-9-7-7-7-9---------9-7-7-6---6-------|
G|-----6h7---------------------------------------8---------|
D|-8h9-----------------------------------------------------|
A|---------------------------------------------------------|
E|---------------------------------------------------------|

e|------66666------66666------77777------77777-------------|
B|------66666------66666------77777------77777-------------|
G|-8b10-------8b10-------9b10-------9b11-------------------|
D|---------------------------------------------------------|
A|---------------------------------------------------------|
E|---------------------------------------------------------|

e|-------------6-------------------------------------------|
B|-7-6-7-9-7-9---9-7-7-6---6-------------------------------|
G|-----------------------8---------------------------------|
D|---------------------------------------------------------|
A|---------------------------------------------------------|
E|---------------------------------------------------------|

Solo del final de guitarra.

e|---------------------6-6---------------------------------|
B|-6-6-7-7h9-9-7-6-7-9-----9-7-7h9-7-6-6h7-6---------------|
G|-------------------------------------------7-7h8-8-7-8~~-|
D|---------------------------------------------------------|
A|---------------------------------------------------------|
E|---------------------------------------------------------|

e|-------------------6-6-----7-6---------------------------|
B|-6-7-7h9-9-7-6-7-9-----9-7-----9-7-6---------------------|
G|-------------------------------------7-7h8~~~~-----------|
D|---------------------------------------------------------|
A|---------------------------------------------------------|
E|---------------------------------------------------------|

Hola loko, espero disfruten el tema, la cancion empieza en A#,
asi que para las notas fijense en los acordes de otra version
que seguro tiene bien.
Un saludo, cualquier duda o pregunta de lo que sea, escribanme
a [email protected]

Fuente original: LaCuerda
Colaborador original: Matias -FiXxXeR- [[email protected]]
Aviso: Este fichero es trabajo propio de su transcriptor y representa su interpretación personal de la canción. El material contenido en esta página es para exclusivo uso privado, por lo que se prohibe su reproducción o retransmisión, así como su uso para fines comerciales.

Califica esta canción


Comentarios en Facebook