Enviado por:
Anonimo

Callejeros, Callejero De Boedo

Imprimir
Intro:

e|-----------------------------------|-----------------|--------------------------------|-------|
B|-----------------------------------|-----------------|--------------------------------|-------|
G|-1h3-3/4-4/6-4 4h3h4h3h4h3h4h3h4h3-|-3---------------|--------------------------------|-------|
D|-----------------------------------|---4-3-----------|--------------------------------|-------|
A|-----------------------------------|-------4-2-1-----|----1-2-4-4/6-4-2-1h2h1h2h1h2h1-|-1-----|
E|-----------------------------------|-------------4-2-|-2-4----------------------------|---(2)-|

                                           (((((  A#-B-A#-B )))))

-------------------------------------------------------------------------------------------------------
        F#-B-F#-C# (x2)
e|----------------------------------------------------|------|
B|-11-9----------9--9---------9-11-11-9-----9---------|------|
G|------10-10-11-----11-10-11----------11-11--11-(10)-|------|
D|----------------------------------------------------|--X2--|
A|----------------------------------------------------|------|
E|----------------------------------------------------|------|

-------------------------------------------------------------------------------------------------------
Verso:

 A#                B         F#                 C#
Ahora que estás encerrado y anclado en la sombra, sin más.
 A#                       B            F#                C#
Ahora que el cielo es cielo razo y no hay caso, no te esuchan más...

e|-----------------------|
B|-----------------------|
G|-----------------------|
D|-----------------------|
A|------------(/9)-------|
E|--(/6)-(/7)-------(/9)-|

e|-----------------------|
B|------------(11)-------|
G|--(8)--(8)--(11)--(10)-|
D|--(9)--(9)--(11)--(11)-|
A|--(9)--(9)--(9)---(11)-|
E|--(6)--(7)--------(9)--|

-------------------------------------------------------------------------------------------------------
Estribillo:

       F#          C#         F#              C#
San Lorenzo va a jugar y vos no vas a poder estar.
       F#          C#         F#              C#
En silencio llorarás, no hay donde puedas escapar.

-------------------------------------------------------------------------------------------------------
Verso 2:

 A#                B         F#                 C#
Devoto no es un viaje de egresados ni el sueño dorado de mamá.
 A#                       B            F#                C#
Pero peor es quedar tirado en la calle de un balazo, sangrando sin parar.

-------------------------------------------------------------------------------------------------------
Estribillo:

       F#          C#         F#              C#
Callejeros va a tocar la milonga que te trajo acá.
       F#          C#         F#              C#
En silencio llorarás, no hay donde puedas escapar.   (Silencio)

-------------------------------------------------------------------------------------------------------
Solo de Guitarra         (B-F#-C#-A#-B-F#-C#)
 
 Con Wah Wah
e|------------------------------------------------------------------------------------------|
B|------------------------------------------------------------------------------------------|
G|---------8-10---11---13--11-10-11-13-11v-11v-11v-11/13-13/15-15-15-15-15-15-13-11-10-8-10-|
D|-8-9-11-----------------------------------------------------------------------------------|
A|------------------------------------------------------------------------------------------|
E|------------------------------------------------------------------------------------------|

Sin Wah Wah
e|-/6-6-6-6-6-6----/6-6-6-6-6-6----/7-7-7-7-7-7-7-----/7-7-7-7-7-7-7--------------------------------------|
B|-/6-6-6-6-6-6----/6-6-6-6-6-6----/7-7-7-7-7-7-7-----/7-7-7-7-7-7-7---7---7-9-7-9-9/11-9-7-7-------------|
G|-----------------------------------------------------------------------10-------------------10-8-(10)---|
D|--------------------------------------------------------------------------------------------------------|
A|--------------------------------------------------------------------------------------------------------|
E|--------------------------------------------------------------------------------------------------------|

-------------------------------------------------------------------------------------------------------
Verso 3:

B          A#         D#  
El infierno tiene dirección 
B         A#      D#  B        A#
y vos la conocés bien por no sentir,
B        A#  B          A#       D# C#
por no sentir, el calor de una mujer.

e|-(7)(7)--(6)(6)--11--9-7-6-|----|--7-9-7--6-7-6-|----|-11-9-7-6-|
B|-(7)-----(6)-----11--------|----|---------------|----|----------|
G|-(8)-----(7)-----12--------|----|---------------|----|----------|
D|-(9)-----(8)-----13--------|-x2-|---------------|-x3-|----------|
A|-(9)-----(8)-----13--------|----|---------------|----|----------|
E|-(7)-----(6)-----11--------|----|---------------|----|----------|

-------------------------------------------------------------------------------------------------------
Estribillo:

       F#          C#         F#              C#
Callejeros va a tocar la milonga que te trajo acá.
       F#          C#         F#              C#
En silencio llorarás, no hay donde puedas escapar.
       F#          C#         F#              C#
San Lorenzo va a jugar y vos no vas a poder estar.
       F#          C#         F#              C#
En silencio llorarás, no hay donde puedas escapar. 
       F#          C#         F#              C#
San Lorenzo va a jugar y vos no vas a poder estar.
       F#          C#         F#              C#
En silencio llorarás, no hay donde puedas escapar. 
       F#          C#         F#              C#
Callejeros va a tocar la milonga que te trajo acá.
       F#          C#         F#              C#
En silencio llorarás, no hay donde puedas escapar.
       F#          C#         F#              C#
Callejeros va a tocar la gilada que te trajo acá.
       F#          C#         F#              C#
En silencio llorarás, no hay donde puedas escapar.


-------------------------------------------------------------------------------------------------------
Final:

Con Wah Wah

e|-------------------------------------------------------------------|
B|--------------------------11-11------------------------------------|
G|-10b-10b-11-13-11-10-11-13------13-11-13-11-10-11-10--6-8-8b-6-8-8-|
D|-------------------------------------------------------------------|
A|-------------------------------------------------------------------|
E|-------------------------------------------------------------------|

D|----------------------------------------------------------|
A|-------------------------11-11------12-11-----------------|
E|-10-11-13-13-11-10-11-13------13-11-------13-11-10-8-(8)--|
D|----------------------------------------------------------|
A|----------------------------------------------------------|
E|----------------------------------------------------------|

´El Ghetto Del Rey´ rnr

Fuente original: LaCuerda
Colaborador original: Pablito Gabriel [[email protected]]
Aviso: Este fichero es trabajo propio de su transcriptor y representa su interpretación personal de la canción. El material contenido en esta página es para exclusivo uso privado, por lo que se prohibe su reproducción o retransmisión, así como su uso para fines comerciales.

Califica esta canción


Comentarios en Facebook