Enviado por:
Anonimo

Callejeros, Armar De Nuevo

Imprimir
Intro:

e|---------------------------------------|--------------------------------------|
B|------------------------------------5x-|----------------------------7x-5x-----|
G|--------------4x-7x-----4x-7x-4x-7x----|-------------4x-7x----4x-7x-------7x--|
D|--5x-5x-5x-5x--------5x----------------|-5x-5x-5x-5x-------5x-----------------|
A|---------------------------------------|--------------------------------------|
E|---------------------------------------|--------------------------------------|

------------------------------------------------------------------------------------------------
(G-C-D-C-G)X2

e|--------------|
B|--------------|
G|-5x5x5x-4x-2x-|
D|--------------|
A|--------------|
E|--------------|
------------------------------------------------------------------------------------------------
VERSO

1er guitarra :
e|-8-5--------------------------------------|-3-3-3--5-5-5----------------|
B|-----8-6-5-6--7/8--------8/10--10/14---8v-|-5-5-5--7-7-7----------------|
G|--------------------7/9-------------------|-5-5-5--7-7-7---5x5x5x-4x-2x-|
D|------------------------------------------|-----------------------------|
A|------------------------------------------|-----------------------------|
E|------------------------------------------|-----------------------------|
2da guitarra :
e|----------------------------------------------------|-----|
B|----------------------------------------------------|-----|
G|------------------5------------7------------5-------|-----|
D|----------------------------------------------------|-x8--|
A|--------2------3x---3x-3x---5x---5x-5x---3x---3x-3x-|-----|
E|--3x-3x---3x----------------------------------------|-----|


 G            C          D               C                   G      G C D C G
Ya voy en tiempo de descuento y en este cuento no te encuentro
y es que te extraño porque hace daño tenerte cerca y no poder tocarte
sigue pasando el tiempo y no me empeño en ser el dueño de tus sueños
porque ni mil botellas al sol brillan tanto como tus ojos al hacerlo,
al hacerlo bien.
------------------------------------------------------------------------------------------------
ESTRIBILLO
e|-------------------------------------------|
B|-------------------------------------------|
G|-----------------5-------------------------|
D|-------------------5-----------------------|
A|-----2-----3-3-3------5-5-5/7-7-5-3-2-0----|
E|-3-3---3--------------------------------3--|


e|-----------------------------------------------|
B|-----------------------------------------------|
G|-----------------5----------7-----5x5x5x-4x-2x-|
D|-------------------5---------------------------|
A|-----2-----3-3-3------5-5-5--------------------|
E|-3-3---3---------------------------------------|
 G   C  D  C           G
Vaaaaaaaaamos a armar de nuevo
 G   C  D  C           G
Vaaaaaaaaamos a armar de nuevo

------------------------------------------------------------------------------------------------
VERSO:

e|-8-5---------------------------------15v-|
B|-----8-6-5-6--7/8--------8/10--10/14-----|
G|--------------------7/9------------------|
D|-----------------------------------------|
A|-----------------------------------------|
E|-----------------------------------------|

Quiero tocar tu cielo, reinar en tu reino y enloquecer con vos
vivir y morir en tus pasos porque yo solo ya no se por dónde caminar
ni por dónde pisar

------------------------------------------------------------------------------------------------
ESTRIBILLO

Vaaaaaaaaamos a armar de nuevo
Vaaaaaaaaamos a armar de nuevo
Armar armar,

------------------------------------------------------------------------------------------------
VERSO

 G       C         D    C     G   C D C
fumar sinceridad, fumar sinceridad
   G       C      D   C            G     C D C
llegar a estar asi y no volver jamas, y no volver.

------------------------------------------------------------------------------------------------
ESTRIBILLO

Vaaaaamos a armar de nuevo
Vaaaaamos a armar de nuevo

------------------------------------------------------------------------------------------------
SOLO DE GUITARRA

e|--------7/8-7-7/10-8-7--------------------------------7-8-8/12-8-7--------|
B|-8b---------------------8---8v--8-10b--8-10-8-10b------------------10-8v--|
G|---9----------------------9-----------------------------------------------|
D|-----10-------------------------------------------------------------------|
A|--------------------------------------------------------------------------|
E|--------------------------------------------------------------------------|

e|-------------10/12-10--7-5-----------5/7-5-5-14b-10vx--5/7-5---------|
B|---10/12-10v---------------8-7-8-----------------------------8--8-8v-|
G|---------------------------------7v----------------------------9-----|
D|---------------------------------------------------------------------|
A|---------------------------------------------------------------------|
E|---------------------------------------------------------------------|

------------------------------------------------------------------------------------------------
ESTRIBILLO

Vaaaaaaaaamos a armar de nuevo
Vaaaaaaaaamos a armar de nuevo

ohhhhhh ohhhhhhhh ohhhhhhhhhhh ohhhh
e|-------------------------------------------|
B|-------------------------------------------|
G|-----------------5-------------------------|
D|-------------------5-----------------------|
A|-----2-----3-3-3------5-5-5/7-7-5-3-2-0----|
E|-3-3---3--------------------------------3--|

ohhhhhh ohhhhhhhh ohhhhhhhhhhh ohhhh

e|---------------------------------------------7-8----8-7-5-7-8-7-5-------|
B|-8b---8-10b-10/12/10--10-8---8-10b--10/12--8----------------------10-8--|
G|----9----------------------9--------------------------------------------|
D|------------------------------------------------------------------------|
A|------------------------------------------------------------------------|
E|------------------------------------------------------------------------|

ohhhhhh ohhhhhhhh ohhhhhhhhhhh ohhhh
e|-------------------------------------------|
B|-------------------------------------------|
G|-----------------4-------------------------|
D|-------------------5-----------------------|
A|-----2-----3-3-3------5-5-5/7-7-5-3-2-0----|
E|-3-3---3--------------------------------3--|

ohhhhhh ohhhhhhhh ohhhhhhhhhhh ohhhh vaaaaaaaaajaaaaa
e|----------------------------------------------------|
B|-----13---13----13----13----------------------------|
G|-12b---12b---12b---12b-----14b-14b-14b-14b/12-12v---|
D|----------------------------------------------------|
A|----------------------------------------------------|
E|----------------------------------------------------|


--------G-C-D-C-G---(G)------------

el ghetto del rey

Fuente original: LaCuerda
Colaborador original: Pablito Gabriel [[email protected]]
Aviso: Este fichero es trabajo propio de su transcriptor y representa su interpretación personal de la canción. El material contenido en esta página es para exclusivo uso privado, por lo que se prohibe su reproducción o retransmisión, así como su uso para fines comerciales.

Califica esta canción


Comentarios en Facebook