Enviado por:
Anonimo

Callejeros, Armar De Nuevo

Imprimir
Intro: 
                        
e---------------------------------------------3---3--
B---------0-3---0-3-0-3-5-----------0-3---0-3---5----
G-0-0-0-0-----0-------------0-0-0-0-----0------------
D----------------------------------------------------
A----------------------------------------------------   
E---------------------------------------------------- 


G C D C G x 2

En la parte después que dice en este cuento no te encuentro, hace esto:
e-8-5-------------
B-----8-6-4/5-8-8--
G-----------------
D-----------------
A----------------- 
E-----------------


 G            C          D               C                   G      G C D C G
Ya voy en tiempo de descuento y en este cuento no te encuentro
y es que te extraño porque hace daño tenerte cerca y no poder tocarte
sigue pasando el tiempo y no me empeño en ser el dueño de tus sueños
porque ni mil botellas al sol brillan tanto como tus ojos al hacerlo, 
al hacerlo bien.

 G   C  D  C           G 
Vaaaaamos a armar de nuevo
 G   C  D  C           G 
Vaaaaamos a armar de nuevo

Quiero tocar tu cielo, reinar en tu reino y enloquecer con vos
vivir y morir en tus pasos porque yo solo ya no se por dónde caminar 
ni por dónde pisar

Vaaaaamos a armar de nuevo
Vaaaaamos a armar de nuevo
Armar armar, 
 G       C         D    C     G   C D C
fumar sinceridad, fumar sinceridad
   G       C      D   C            G     C D C 
llegar a estar asi y no volver jamas, y no volver.

Vaaaaamos a armar de nuevo
Vaaaaamos a armar de nuevo


Solo

e------------7/8-7-7/10-8-7----------------------------------7-8-8/12-8-7-------
B-8b9-8-5------------------8-5-8--8-10b11-10-8-10-8-10b11-10--------------10-8--
G---------5---------------------------------------------------------------------
D-------------------------------------------------------------------------------
A------------------------------------------------------------------------------- 
E-------------------------------------------------------------------------------

e-5/7-5--12-10-6/7-5-----------5/7-5-5-13b14-6/7-5--------
B--------------------8-7-8------------------------8-5-8-8-
G--------------------------7------------------------------
D---------------------------------------------------------
A---------------------------------------------------------  
E---------------------------------------------------------

Vaaaaamos a armar de nuevo
Vaaaaamos a armar de nuevo

------------------------------------------

6/6 --> Deslizar desde el traste 6 hasta el 7 (Slide).

9b10 ----> Estirar la cuerda en el traste 9 hasta que suene     |
 |           como sí se pisara el traste 10 (Bending).


Aguante el rocanrooooooooooooool!!!!!!
por cualquier cosa mi mail es [email protected]

Fuente original: LaCuerda
Colaborador original: Federico Samora [[email protected]]
Aviso: Este fichero es trabajo propio de su transcriptor y representa su interpretación personal de la canción. El material contenido en esta página es para exclusivo uso privado, por lo que se prohibe su reproducción o retransmisión, así como su uso para fines comerciales.

Califica esta canción


Comentarios en Facebook