Enviado por:
Anonimo

Callejeros, Algo Mejor Algo Peor

Imprimir
Sinceramente pensé que el bajo del tema estaba muy bueno, pero es medio
Aburrido. Igual, Dios le mete un ritmo bárbaro.


Siempre tuve un defecto...
G|---7~-----------------------------------------------------------------
D|----------------------------------------------------------------------
A|----------------------------------------------------------------------
E|----------------------------------------------------------------------

Decir que no...
G|----------------------------------------------------------------------
D|----------------------------------------------------------------------
A|----------------------------3-2-3-2-----------------------------------
E|--333-0-333-0-333-0-333-3-3---------3x--------------------------------

Entrancado...
G|-----4-2--------------------------------------------------------------
D|-2-5------------------------------------------------------------------
A|----------------------------------------------------------------------
E|----------------------------------------------------------------------

Como un idiota fui...
G|----------------------------------------------------------------------
D|----------------------------------------------------------------------
A|--3x—0x---------------------------------------------------------------
E|----------------------------------------------------------------------

Con el moño en la cabeza...
G|----------------------------------------------------------------------
D|----------------------------------------------------------------------
A|--0x-3x-0x-3x-0x-3x---------------------------------------------------
E|---------------------1x-----------------------------------------------

A la agonía de la noche...
G|----------------------------------------------------------------------
D|----------------------------------------------------------------------
A|--0x-3x-0x-3x-0x-5x---------------------------------------------------
E|----------------------------------------------------------------------

De alejarme...
G|--------------------4h5-7-5-4-----------------------------------------
D|----------------------------------------------------------------------
A|-0x-3x-0x----0x-5-5---------------------------------------------------
E|----------1x----------------------------------------------------------

Salimos de aquella...
G|----------------------------------------------------------------------
D|----------------------------------------------------------------------
A|--5x------------------------------------------------------------------
E|----------------------------------------------------------------------

Hacia otro lugar...
G|----------------------------------------------------------------------
D|----------------------------------------------------------------------
A|----------------------------3-2-3-2-----------------------------------
E|--333-0-333-0-333-0-333-3-3---------3x--------------------------------



Regalado...
G|-----4-2--------------------------------------------------------------
D|-2-5------------------------------------------------------------------
A|----------------------------------------------------------------------
E|----------------------------------------------------------------------

Ofrecí el sabor...
G|----------------------------------------------------------------------
D|----------------------------------------------------------------------
A|--3x—0x---------------------------------------------------------------
E|----------------------------------------------------------------------

De aquellos...
G|----------------------------------------------------------------------
D|----------------------------------------------------------------------
A|-0x-3x-0x-3x-0x-------------------------------------------------------
E|----------------1x----------------------------------------------------

Que ganador!!!...
G|------4h5-7-5-4-------------------------------------------------------
D|----------------------------------------------------------------------
A|--5-5-----------------------------------------------------------------
E|----------------------------------------------------------------------

Fue ahí que comprobé...x2
G|---------------------------------------------7-5-4--------------------
D|---2-5----------------4-7------2-5------4-7---------------------------
A|--3---------2-5-----5--------3--------5-------------------------------
E|-----------3----------------------------------------------------------

Y que a veces...x2
G|------------------------------------------4h5-7-5-4-------------------
D|---2-5--2-5-----------------------------------------------------------
A|--3----3------2-5--2-5-----2-3-5-3-2--5-5-----------------------------
E|-------------3----3------1--------------------------------------------

Me quedé dormido...
G|----------------------------------------------------------------------
D|----------------------------------------------------------------------
A|---5~/17/5------------------------------------------------------------
E|----------------------------------------------------------------------

LA SEGUNDA PARTE TIENE LA MISMA BASE

EN EL FINAL JUEGA CON MI Y SOL COMO LO HACE AL PRINCIPIO DEL TEMA

Aguante Callejeros!!!

Fuente original: LaCuerda
Colaborador original: Gonzalo Mari [[email protected]]
Aviso: Este fichero es trabajo propio de su transcriptor y representa su interpretación personal de la canción. El material contenido en esta página es para exclusivo uso privado, por lo que se prohibe su reproducción o retransmisión, así como su uso para fines comerciales.

Califica esta canción


Comentarios en Facebook