Enviado por:
anonimo

Reik, Me Duele Amarte

afinacion:

G#|-----
D#|-----
A#|-----
F |-----




verso

-|--------|--------|--------|-------|-------|--------|--------|
-|--------|--------|--------|-------|-------|-------3|5----5--|
x|3--3---3|2--2---2|--------|-------|-------|3----3--|------5-|
-|--------|--------|5--5--35|0-----0|1-----1|--------|--------|



verso parte 2

|------|---------|------|-------|------|--------|------|
|------|---------|------|-------|------|--------|------|
|------|---------|------|-------|------|--------|------|
|5----5|5-----x5-|0----0|0---0-0|1----1|1---1-1-|3----3|



coro:

|------|-------|-------|-------|--------|-------|-----|
|------|-------|-------|-------|-------3|-------|-----|
|3-3---|-------|-------|-------|--------|3-3---3|-----|
|------|3-3--33|5-5---5|0-0---0|1-1---1-|-------|3----|
Aviso: Este fichero es trabajo propio de su transcriptor y representa su interpretación personal de la canción. El material contenido en esta página es para exclusivo uso privado, por lo que se prohibe su reproducción o retransmisión, así como su uso para fines comerciales.

Califica esta canción


Comentarios en Facebook