Acordes y tablaturas para guitarra

Acordes y Tablaturas
Usuario: Password:

Buscar:
Acordes y Tablaturas >> Letra C >> Acordes de Callejeros >> Jugando
Acordes de Jugando, Callejeros

Jugando

Callejeros






am.c.d.f.g.
 intro
[la viola sola]
           
 E||------------------------------------------------------------------------|
 B||------------------------------------------------------------------------|
 G||-------------5h7--5--3--0-----0----a12---0h2-0--------------------------|
 D||---2h3--5------------------3--------------------3---2-3-5-3-2-0---------|
 A||------------------------------------------------------------------------|
 E||------------------------------------------------------------------------|

 Arpegiando estas notas:
      Am              F            G
 E||---------0-------------1-------3------------------------------------------|
 B||-----------1-------------1-----3------------------------------------------|
 G||------2------2-------------2---4------------------------------------------|
 D||----2--------------3-----------5------------------------------------------|
 A||--0--------------3---3----------------------------------------------------|
 E||--------------------------------------------------------------------------|


TEMA
       C            G
Como volar, como soñar con angeles
         F                       Am              F
como abrazar la gloria, como acostarse sobre el mar
       C            G
como vibrar, como meterse en ese flash
         F                   Am     F     G
como llegar a Dios, asi se siente cuando estas.

ESTRIBILLO
         C                F                G
Porque jugando al olvido no me quedan inventos
         C                        F                G
yo se que me lleve mucho pero quiero volver por el resto
               Am            D    C                  G   
Si un cruel destino no dejo mas, no me resigno a morir igual
             Am            D   
si creo que todo puede cambiar
 F                G   
como no voy a esperar.

TEMA
Como llegar, como engañarlo a lucifer
como escuchar un buen rock, en la mas bella soledad
iluminame, en esta eterna noche
acomodame el alma, yo solo siento cuando estas.

ESTRIBILLO
Porque jugando al olvido no me quedan inventos
yo se que me lleve mucho pero quiero volver por el resto
Si un cruel destino no dejo mas, no me resigno a morir igual
si creo que todo puede cambiar
como no voy a esperarte.

          C                                   F
De cientosiete días de magia solo queda un dolor
        Am                          F             C
porque el orgullo [el gran orgullo] lo boxeo al corazón.

ESTRIBILLO
Porque jugando al olvido no me quedan inventos
yo se que me lleve mucho pero quiero volver por el resto...

Los Mocosos de Palomar las sacan de oido 
Aguante Ilusos
No empezar a dejar de pensar

Fuente original: LaCuerda
Colaborador original: Matias [[email protected]]

Que te parecio? Calificalo con estrellas!!

Rating: 7.8/10 (132 votos)

Este fichero es trabajo propio de su transcriptor y representa su interpretación personal de la canción. El material contenido en esta página es para exclusivo uso privado, por lo que se prohibe su reproducción o retransmisión, así como su uso para fines comerciales.


Deja tus comentarios:

Letras de Callejeros
Letras de canciones | Musica Independiente