Enviado por:
anonimo

Camila, Esto Es Verdad

Imprimir
Bueno, esta es mi primera aportacion a la pagina, y va dedicada
al amor de mi vida, a ti mi chikita hermosa, tu sabes que TE AMO
y que eres todo para mi. Con amor para mi pandyta.



    Em                D                     Cadd9
e-----------------------2----|-----------------------|
B----0-----------------3-----|---------------------1-|
G---0-----------------2------|--------------------0--|
D--2-----------------0-------|-------------------0---|
A-2--------------------------|------------------3----|
E----------------------------|-----------------------|
 Eres todo lo que pedia      lo que mi alma vacia
    G
e-----------------|
B-----------------|
G--------------0--|
D-------------0---|
A------------2----|
E-----------3-----|
  Queria sentir
   Em                     D                      Cadd9
e---------------------------2--|---------------------------|
B------0-------------------3---|------------------------1--|
G-----0-------------------2----|-----------------------0---|
D----2-------------------0-----|----------------------0----|
A---2--------------------------|---------------------3-----|
E------------------------------|---------------------------|
  Eres lo que tanto esperaba   lo que en sueños buscaba
                   G             Am                      D
e------------------------|------------0---------------------2---|
B------------------------|-----------1---------------------3----|
G----------------------0-|---2h4-2--2---------------------2-----|
D---------------------0--|---------2---------------------0------|
A--------------------2---|--------------------------------------|
E-------------------3----|--------------------------------------|
 Y que en ti descubri           Tu has llegado a encender
                      Em            D            Cadd9
e------------------------|-----------2---------------|
B----------------------0-|----------3----------------|
G---------------------0--|---------2---------------1-|
D--------------------2---|--------0---------------0--|
A-------------------2----|-----------------------0---|
E------------------------|----------------------3----|
 Cada parte de mi alma     Cada espacio de mi ser
                 Am                        D                   Cadd9
e----------------------0--|----------------2--|----------------------|
B---------------------1---|---------------3---|----------------------|
G--------------------2----|--------------2----|-----------------1----|
D-------------------2-----|-------------0-----|----------------0-----|
A-------------------------|-------------------|---------------0------|
E-------------------------|-------------------|--------------3-------|
  Ya no tengo corazon   Ni ojos para nadie       Solo para ti

    Em                D                     Cadd9
Eres el amor de mi vida....El destino lo sabia
                     G
Y hoy te pueso ante mi
    Em7                     D
Y cada vez que miro al pasado
                           Cadd9                   G
Es que entiendo que a tu lado......siempre perteneci
 Am                    D                       Em7
Tu has llegado a encender...Cada parte de mi alma
          D         Cadd9
Cada espacio de mi ser
                Am            D
Ya no tengo corazon....Ni ojos para nadie
           Cadd9             Em7               Cadd9             Em7
Solo para ti......Solo para ti......solo para ti......Solo para ti
 Cadd9              G
Esto es de verdad, lo puedo sentir
 Cadd9                       D
Se que mi lugar....es junto a ti
                                     Cadd9 Em7 Cadd9 G
 G                  D
Eres todo lo que pedia
               Cadd9
Lo que no conocia

Y que en ti descubri.........
Aviso: Este fichero es trabajo propio de su transcriptor y representa su interpretación personal de la canción. El material contenido en esta página es para exclusivo uso privado, por lo que se prohibe su reproducción o retransmisión, así como su uso para fines comerciales.

Califica esta canción


Comentarios en Facebook