Enviado por: Anonimo
Agrandar Letra
Reducir Letra
Imprimir


Otras Versiones de Nos vamos juntos:




Caifanes, Nos vamos juntos

Intro...

Guitarra 1
e------------------------------------|
B------------------------------------|
G-00000000000000000000000------------|
D-22222222222222222222222------------|
A------------------------------------|
E------------------------------------|

Guitarra 2
e-------9----12--9---12---9---12-----|
B----11---11---11--11--11--11--11----|
G------------------------------------|
D------------------------------------|
A------------------------------------|
E------------------------------------|
******Esto es varias veces*******

Guitarra 1

Em            D-Dsus4-D  Em     

Guitarra 2

aqui Marcovich usa la palanca marcada asi ~ 

e------------------------------------|
B-11^(13)~--12^(14)~--11^(13)~-------|
G------------------------------------|
D------------------------------------|
A------------------------------------|
E------------------------------------|


Guitarra 1

Em            D-Dsus4-D  Em     

Guitarra 2


e-----------10*8----8-----12^(14)---|
B----------------10---10-------------|
G------------------------------------|
D------------------------------------|
A------------------------------------|
E------------------------------------|

aqui la guitara dos deja de sonar y la
uno acompaña con acordes solamente

Em               D-Dsus4-D-Em
Nos vamos juntos
Em               D-Dsus4-D-G
haciendo viejos
G
algunos sueños
Em             D-Dsus4-D-Em
toda la piel

Em                  D-Dsus4-D-Em
Mordiendo el tiempo
Em               D-Dsus4-D-G
lamiendo el aire
G
nos buscamos 
         Em
para evitarnos

Fmaj7              Em
y sin embargo aqui estoy
Fmaj7              Em
y sin embargo no me voy

Guitarra 1
e------------------------------------|
B------------------------------------|
G-00000000000000000000000------------|
D-22222222222222222222222------------|
A------------------------------------|
E------------------------------------|

Guitarra 2
e-------9----12--9---12---9---12-----|
B----11---11---11--11--11--11--11----|
G------------------------------------|
D------------------------------------|
A------------------------------------|
E------------------------------------|
******Esto es varias veces*******

Guitarra 1

Em            D-Dsus4-D  Em     

Guitarra 2

e------------------------------------|
B-11^(13)~--10^(12)~--11^(13)~-------|
G------------------------------------|
D------------------------------------|
A------------------------------------|
E------------------------------------|

Guitarra 1

Em            D-Dsus4-D  Em     

Guitarra 2

e------------------------------------|
B-10^(11)-(11)-(11)-(11)-10*8--9-8---|
G-----------------------------9------|
D------------------------------------|
A------------------------------------|
E------------------------------------|

Em             D-Dsus4-D-Em
Vivimos juntos
Em               D-Dsus4-D-G
en infiernos mutuos
G
en mentiras humanas
            Em  D-Dsus4-D-Em
eternas hermanas

Em             D-Dsus4-D-Em
juntos buscamos
Em              D-Dsus4-D-G
la eterna pareja
G
después de amarnos 
     Em
nos odiamos

Fmaj7               Em
y sin embargo aqui estoy
Fmaj7               Em
y sin embargo no me voy

G               A           Bm
me voy         yendoooo     como el mar
(guitarra2)
e-----3------3------5-----5-(----7-----7)---|
B----3------3------5-----5--(---7-----7-)X2-|
G-3*4---3*4-----5*6---5*6---(7*9---7*9--)---|
D-------------------------------------------|
A-------------------------------------------|
E-------------------------------------------|

G                 A           Bm
Lento y       salvaje como    tu
e-----3------3------5-----5-(----7-----7)---|
B----3------3------5-----5--(---7-----7-)X2-|
G-3*4---3*4-----5*6---5*6---(7*9---7*9--)---|
D-------------------------------------------|
A-------------------------------------------|
E-------------------------------------------|

Em                D-Dsus4-D-Em
vamos a abrazarnos
Em                D-Dsus4-D-G
para crecer en paz
G
vamos a olvidarnos 
         Em                D-Dsus4-D-Em
de flagelarnos para querernos

Em           D-Dsus4-D-Em
Vayamos juntos
Em           D-Dsus4-D-G
haciendo besos
G
yo te dare mis ojos 
    Em
para q llores

G               A           Bm
me voy         yendoooo     como el mar
(guitarra2)
e-----3------3------5-----5-(----7-----7)---|
B----3------3------5-----5--(---7-----7-)X2-|
G-3*4---3*4-----5*6---5*6---(7*9---7*9--)---|
D-------------------------------------------|
A-------------------------------------------|
E-------------------------------------------|

G                 A           Bm
Lento y       salvaje como    tu
e-----3------3------5-----5-(----7-----7)---|
B----3------3------5-----5--(---7-----7-)X2-|
G-3*4---3*4-----5*6---5*6---(7*9---7*9--)---|
D-------------------------------------------|
A-------------------------------------------|
E-------------------------------------------|

G               A           Bm
me voy         yendoooo     como el mar
(guitarra2)
e-----3------3------5-----5-(----7-----7)---|
B----3------3------5-----5--(---7-----7-)X2-|
G-3*4---3*4-----5*6---5*6---(7*9---7*9--)---|
D-------------------------------------------|
A-------------------------------------------|
E-------------------------------------------|

G                 A           Bm
Lento y       salvaje como    tu
e-----3------3------5-----5-(----7-----7)---|
B----3------3------5-----5--(---7-----7-)X2-|
G-3*4---3*4-----5*6---5*6---(7*9---7*9--)---|
D-------------------------------------------|
A-------------------------------------------|
E-------------------------------------------|

G               A           Bm
me voy         yendoooo     como el mar
(guitarra2)
e-----3------3------5-----5-(----7-----7)---|
B----3------3------5-----5--(---7-----7-)X2-|
G-3*4---3*4-----5*6---5*6---(7*9---7*9--)---|
D-------------------------------------------|
A-------------------------------------------|
E-------------------------------------------|

G                 A           Bm
Lento y       salvaje como    tu
e-----3------3------5-----5-(----7-----7)---|
B----3------3------5-----5--(---7-----7-)X2-|
G-3*4---3*4-----5*6---5*6---(7*9---7*9--)---|
D-------------------------------------------|
A-------------------------------------------|
E-------------------------------------------|


G                 A           Bm
AAAAAAAAAAAAAAAAAAHHHHHHHHHHHH

G                 A           Bm
AAAAAAAAAAAAAAAAAAHHHHHHHHHHHH


al final todos se quedan en G marcandolo
con diferentes acentos...oiganlo
y ya saben cuaquier duda comentario o anecdota
a mi mai [email protected]

si van a usar esta tab para algun lugar avisenme
no sean ****gandallas***** y si buscan un 
guitarrista ando en busca de banda =)

Fuente original: LaCuerda
Colaborador original: Julio Durán "Gambito" [[email protected]]
Aviso: Este fichero es trabajo propio de su transcriptor y representa su interpretación personal de la canción. El material contenido en esta página es para exclusivo uso privado, por lo que se prohibe su reproducción o retransmisión, así como su uso para fines comerciales.

Califica esta canción


Comentarios en Facebook