Enviado por: Anonimo
Agrandar Letra
Reducir Letra
Imprimir



Caifanes, La celula que explota

La Celula que explota
Saul Hernandez
El Diablito 1990


Guitarra 1

e||---5--5~~~~-----5--5---|--3--3--3~~~~------2------||
B||---7--7~~~~-----7--7---|--5--5--5~~~~----3---3----||
G||-----------------------|--------------------------||
D||-----------------------|--------------------------||
A||-----------------------|--------------------------||
E||-----------------------|--------------------------||


Bajo

G||-----------------------|--------------------------||
D||-----------------------|--------------------------||
A||-----------------------|--------------------------||
E||-----------------------|--------------------------||


Guitarra 1
               let ring------------------------------|
e||---0-----------2-------|--------------------------||
B||-2---2--------3--------|--------------------------||
G||-------------4---------|--------------------------||
D||------------4----------|--------------------------||
A||-----------------------|--------------------------||
E||-----------------------|--------------------------||


Bajo

G||-----------------------|--------------------------||
D||-----------------------|--------------------------||
A||-----------------------|--------------------------||
E||------------7----------|-(7)---------------------||


Guitarra 1                      
                                let ring-------------|
e||--0--0----------2--2---|--3--3--------------------||
B||--2--2----------3--3---|--5----5------------------||
G||-----------------------|--------------------------||
D||-----------------------|--------------------------||
A||-----------------------|--------------------------||
E||-----------------------|--------------------------||


Bajo

G||-----------------------|--------------------------||
D||-----------------------|--------------------------||
A||-----------------------|--------------------------||
E||-----------------------|--------------------------||
Guitarra 1   
           * let ring--------------------------------|
e||--2--0-------2---------|--------------------------||
B||--3--2------3----------|--------------------------||
G||-----------4-----------|--------------------------||
D||----------4------------|--------------------------||
A||-----------------------|--------------------------||
E||-----------------------|--------------------------||

Guitarra 2    (acorde)       Bm

Bajo

G||-----------------------|--------------------------||
D||-----------------------|--------------------------||
A||--------72----2-------|-----2------------2---4---||
E||------------------2----|--2------------2----------||

* inicia teclados con efecto de vibrafono con la siguiente
  secuencia:

  D
  ____________________________
  | | | | | |  | | | | | | | |   el primer acorde tocado con esta nota
  | | | | | |  | |2| | | | | |   es un tresillo, despues continua con 2
  | |_| |_| |  | |_| |_| |_| |   y 3 al mismo tiempo:
  |  |   |  |  |  |   |   |  |   (acompañamiento en F#m)
  |  | 1 |  |  |  |   | 3 |  |   123 2     2  2  El tiempo es igual al de
  |__|___|__|__|__|___|___|__|       3     3  3  la guitarra


  C
  ____________________________
  | | | | | |  | | | | | | | |     
  | | | | | |  | | | | | | | |    2  2
  | |_| |_| |  | |_| |_| |_| |    3  3
  |  |   |  |  |  |   |   |  |
  |1 |   |2 |  |3 |   |   |  |
  |__|___|__|__|__|___|___|__|

  Bm
  _________________________________
  | | | | | | | |  | | | | | | | |
  | | | | | | | |  | | | | | | |3|   2  2 
  | |_| |_| |_| |  | |_| |_| | |_|   3  3
  |  |   |   |  |  |  |   |  |  |  
  |  |   |   | 1|  |  | 2 |  |  |  
  |__|___|___|__|__|__|___|__|__|__

  A
  _______________________________
  | | | | | | | |  | | | | | |  |
  | | | | | | | |  | |2| | | |  |   2  2 
  | |_| |_| |_| |  | |_| |_| |  |   3  3
  |  |   |   |  |  |  |   |  |  |
  |  |   | 1 |  |  |  |   | 3|  |
  |__|___|___|__|__|__|___|__|__|
  G
  _______________________________
  | | | | | | | |  | | | | | |  |
  | | | | | | | |  | | | | | |  |   2   Aqui cambias el acompañamiento
  | |_| |_| |_| |  | |_| |_| |  |   3   de F#m a A y lo sostienes hasta
  |  |   |   |  |  |  |   |  |  |       que se repita la secuencia.
  |  | 1 |   | 2|  |  | 3 |  |  |
  |__|___|___|__|__|__|___|__|__|


Acompañamiento:

  F#m
  _______________________________
  | | | | | | | |  | | | | | |  |
  | |1| | | | | |  | |3| | | |  |   Este Acorede es de acompañamiento   
  | |_| |_| |_| |  | |_| |_| |  |   Puedes usar el Efecto de 
  |  |   |   |  |  |  |   |  |  |   "Syn Saw Wave"  de un teclado midi
  |  |   | 2 |  |  |  |   |  |  |   tocalo en la primera octava del
  |__|___|___|__|__|__|___|__|__|   teclado 

  A
  _______________________________
  | | | | | | | |  | | | | | |  |   
  | | | | | | | |  | |2| | | |  |
  | |_| |_| |_| |  | |_| |_| |  |   
  |  |   |   |  |  |  |   |  |  |
  |  |   | 1 |  |  |  |   | 3|  |
  |__|___|___|__|__|__|___|__|__|


Guitarra 1
    

e||-----------------------||
B||-----------------------||
G||-----------------------||
D||-----------------------||
A||-----------------------||
E||-----------------------||


Bajo

G||-----------------------||
D||-----------------------||
A||--5--------------------||
E||-----------------------||









Guitarra 1
   Encimar sobre el final de teclados en G   

e||---5--5---------5--5---|--3--3--3----------2------||
B||---7--7---------7--7---|--5--5--5--------3---3----||
G||-----------------------|--------------------------||
D||-----------------------|--------------------------||
A||-----------------------|--------------------------||
E||-----------------------|--------------------------||

Guitarra 2
     D

Bajo

G||-----------------------|--------------------------||
D||-----------------------|--------------------------||
A||-(5)-------------------|-(5)----------------------||
E||-----------------------|--------------------------||


Guitarra 1       
             * let ring------------------------------|
e||---0-----------2-------|--------------------------||
B||-2---2--------3--------|--------------------------||
G||-------------4---------|--------------------------||
D||------------4----------|--------------------------||
A||-----------------------|--------------------------||
E||-----------------------|--------------------------||


Guitarra 2
              Bm

  *repetir secuencia de teclado

Bajo

G||-----------------------|--------------------------||
D||-----------------------|--------------------------||
A||-(5)--------4--2---2---|-----2------------2--4----||
E||---------------------2-|r-2------------2----------||















Guitarra 1
                                let ring-------------|
e||--0--0----------2--2---|--3--3--------------------||
B||--2--2----------3--3---|--5----5------------------||
G||-----------------------|--------------------------||
D||-----------------------|--------------------------||
A||-----------------------|--------------------------||
E||-----------------------|--------------------------||


Bajo

G||-----------------------|--------------------------||
D||-----------------------|--------------------------||
A||-(5)-------------------|-(5)----------------------||
E||-----------------------|--------------------------||


Guitarra 1
             let ring-------*--------|
e||--2--0-------2---------|---------||
B||--3--2------3----------|---------||
G||-----------4-----------|---------||
D||----------4------------|---------||
A||-----------------------|---------||
E||-----------------------|---------||

Guitarra 2
                            Ar-----|
e||-----------------------|-7-------||
B||-----------------------|----7----||     Ar  armonico
G||-----------------------|-------7-||                 
D||-----------------------|---------||                 
A||-----------------------|---------||            
E||-----------------------|---------||

  * silencio a teclados
Bajo
  
G||-----------------------|---------||
D||-----------------------|---------||
A||-(5)------------0--2---|-2-------||
E||----------2--2---------|---------||














Guitarra 1
     (0:34)                                        armonicos
e||---------2-----------------|--------3------3--------------------||
B||--------2------------------|--------0-----0-----(5)-------------||
G||-------3-------------------|--------0----0---------(5)----------||
D||------4--------------------|--------0---------------------------||
A||-----4---------------------|--------2---------------------------||
E||----2----------------------|--------3---------------------------||
              Ay veces que no tengo ga-nas de Verte

Guitarra 2
                                                       c/Distor
e||---------------------------|------------------------------------||
B||---------------------------|------------------------------------||
G||---------------------------|---------------------------11p9-----||                 
D||---------------------------|------------------------------------||                 
A||---------------------------|------------------------------------||            
E||---------------------------|------------------------------------||


Bajo
  
G||---------------------------|------------------------------------||
D||---------------------------|------------------------------------||
A||---------------------------|------------------------------------||
E||----2----------------------|----3-------------------------------||


Guitarra 1
     (0:42)                                        (0:48)       
e||---------2-----------------|-----------3------------------------||
B||--------2------------------|------------0-----------------------||
G||-------3-------------------|-------------0----------------------||
D||------4--------------------|--------------0---------------------||
A||-----4---------------------|---------------2--------------------||
E||----2----------------------|----------------3-------------------||
              Ay veces que no quiero ni tocarte     *

Guitarra 2
   c/Distor
e||---------------------------|------------------------------------||
B||---------------------------|------------------------------------||
G||(9)h11---------------------|------------------------------------||                 
D||---------------------------|------------------------------------||                 
A||---------------------------|------------------------------------||            
E||---------------------------|------------------------------------||


Bajo
  
G||---------------------------|------------------------------------||
D||---------------------------|------------------------------------||
A||---------------------------|------------------------------------||
E||----2----------------------|------3--------------3--3--3--3-----||



	* segunda secuencia de teclados
Acordes:       A  Bm C  Bm A  A
Digitacion:    2  2  2  2  2  2
               3  3  3  3  3  3
 
Guitarra 1
     (0:50)                                  
e||---------0-----------------|--------2-------------------2-------||
B||--------2------------------|--------3------------------3--------||
G||-------2-------------------|--------4-----------------4---------||
D||------2--------------------|--------4----------------4----------||
A||-----0---------------------|--------2---------------------------||
E||----0----------------------|--------2---------------------------||
             Ay veces que quisiera ahogarte en un grito

Guitarra 2
                                                       c/distor
e||---------------------------|------------------------------12-b--||
B||---------------------------|------------------------------------||
G||---------------------------|------------------------------------||                 
D||---------------------------|------------------------------------||                 
A||---------------------------|------------------------------------||            
E||---------------------------|------------------------------------||


Bajo
G||---------------------------|------------------------------------||
D||---------------------------|------------------------------------||
A||----0----------------------|--------2---------------4--5--------||
E||---------------------------|------------------------------------||


Guitarra 1
     (0:58)                                  
e||---------0-----------------|--------2--------------3----0-------||
B||--------2------------------|--------3--------------0----2-------||
G||-------2-------------------|--------4--------------0----2-------||
D||------2--------------------|--------4--------------0----2-------||
A||-----0---------------------|--------2--------------2----0-------||
E||----0----------------------|--------2--------------3----0-------||
             Y olvidarme deeeeeee esa imagen tuya     pero no me 

Guitarra 2
  c/distor
e||-12------------------------|------------------------------------||
B||---------------------------|------------------------------------||
G||---------------------------|------------------------------------||                 
D||---------------------------|------------------------------------||                 
A||---------------------------|------------------------------------||            
E||---------------------------|------------------------------------||


Bajo
G||---------------------------|-------------------4------4-6-------||
D||---------------------------|-----------------4---4--5-----7-----||
A||----0----------------------|--------2--/--5---------------------||
E||---------------------------|------------------------------------||
Guitarra 1
     (1:06)                                  
e||---2-----------------------|------------------------------------||
B||---3-----------------------|------------------------------------||
G||---4-----------------------|------------------------------------||
D||---4-----------------------|------------------------------------||
A||---2-----------------------|------------------------------------||
E||---2-----------------------|------------------------------------||
      atrevo
      * tercera secuencia de teclados 
Guitarra 2
e||---------------------------|------------------------------------||
B||---------------------------|------------------------------------||
G||---------------------------|------------------------------------||                 
D||---------------------------|------------------------------------||                 
A||---------------------------|------------------------------------||            
E||---------------------------|------------------------------------||

Bajo
G||---------------------------|------------------------9-h11------||
D||---------------------------|------------------------------------||
A||---------------------------|------------------------------------||
E||--7-----------------------|------------------------------------||

* Tercera secuencia de teclado  SIN ACOMPAÑAMIENTO
 Acorde:       D               C     Bm    A     G
 Digitacion:   123 2  2  2  2  2  2  2  2  2  2  2
                   3  3  3  3  3  3  3  3  3  3  3
                                                 +
@@@@@@@@
   + aqui inicas acompañamiento con F#m para el resto de la cancion hasta el puente
Guitarra 1
     (1:10)                                        
e||---------2-----------------|--------3---------------------------||
B||--------2------------------|--------0---------------------------||
G||-------3-------------------|--------0---------------------------||
D||------4--------------------|--------0---------------------------||
A||-----4---------------------|--------2---------------------------||
E||----2----------------------|--------3---------------------------||
              Ay veces que no dejo de soñarte

Acompañamiento de Teclado:
      F#m                              G
Guitarra 2
e||---------------------------|------------------------------------||
B||---------------------------|------------------------------------||
G||---------------------------|------------------------/3---------||                 
D||---------------------------|------------------------------------||                 
A||---------------------------|------------------------------------||            
E||---------------------------|------------------------------------||

Bajo
G||---------------------------|-----------------------4------------||
D||------------2--------------|------------4------------5-4--------||
A||-------4-----4-------------|-------5---------------------5-4-2--||
E||----2-----------2----------|--3---------------------------------||
Guitarra 1
     (1:18)                                        (1:24)       
e||---------2-----------------|-----------3------------------------||
B||--------2------------------|------------0-----------------------||
G||-------3-------------------|-------------0----------------------||
D||------4--------------------|--------------0---------------------||
A||-----4---------------------|---------------2--------------------||
E||----2----------------------|----------------3-------------------||
              De acariciarte hasta que ya no pueda     *

Guitarra 2

e||---------------------------|------------------------------------||
B||---------------------------|------------------------------------||
G||----2----------------------|------------------------------------||                 
D||---------------------------|------------------------------------||                 
A||---------------------------|------------------------------------||            
E||---------------------------|------------------------------------||

Bajo
G||---------------------------|-----------------------4------------||
D||------------2--------------|------------4------------5-4--------||
A||-------4-----4-------------|-------5---------------------5-4-2--||
E||----2-----------2----------|--3---------------------------------||

	* segunda secuencia de teclados

Acordes:       A  Bm C  Bm A  A
Digitacion:    2  2  2  2  2  2
               3  3  3  3  3  3
 
Guitarra 1
     (1:26)                                  
e||---------0-----------------|--------2-------------------2-------||
B||--------2------------------|--------3------------------3--------||
G||-------2-------------------|--------4-----------------4---------||
D||------2--------------------|--------4----------------4----------||
A||-----0---------------------|--------2---------------------------||
E||----0----------------------|--------2---------------------------||
             Ay veces que quisiera    morir contigo

Guitarra 2
                                                       
e||------10----9--------------|------------------------------------||
B||--10----10----------------|------------------------------------||
G||---------------------------|-------/7---6---6---7---------------||                 
D||---------------------------|-------/7---7---7---7---------------||                 
A||---------------------------|------------------------------------||            
E||---------------------------|------------------------------------||


Bajo
  
G||----------2----------------|-------------------4---4-6-7-6-4----||
D||---------------------------|-----------------4---------------7--||
A||----0----------------------|--------2--/--5--------------------7||
E||---------------------------|------------------------------------||
Guitarra 1
     (1:34)                                  
e||---------0-----------------|--------2--------------3----0-------||
B||--------2------------------|--------3--------------0----2-------||
G||-------2-------------------|--------4--------------0----2-------||
D||------2--------------------|--------4--------------0----2-------||
A||-----0---------------------|--------2--------------2----0-------||
E||----0----------------------|--------2--------------3----0-------||
             Y olvidarme deeeeeee   toda materia      pero no me 

Guitarra 2

e||---------------------------|------------------------------------||
B||---------------------------|------------------------------------||
G||---------------------------|------------------------------------||                 
D||---------------------------|------------------------------------||                 
A||---------------------------|------------------------------------||            
E||---------------------------|------------------------------------||


Bajo
  
G||---------------------------|-------------------4----------------||
D||---------------------------|-----------------4---4--5-----------||
A||----0----------------------|--------2--/--5---------------------||
E||---------------------------|----------------------------0------||


Guitarra 1
     (1:42)                    (1:44)               
e||---2-----------------------|                                    ||
B||---3-----------------------| Rasgueo en Fm                      ||
G||---4-----------------------|                                    ||
D||---4-----------------------|                                    ||
A||---2-----------------------|                                    ||
E||---2-----------------------|                                    ||
      atrevo
                                * cuarta secuencia de teclados 
Guitarra 2
  
e||---------------------------|------------------------------------||
B||---------------------------|-4-3-1-3-4-3-1-3-4-3-1-3-4-3-1-3----||
G||---------------------------|------------------------------------||
D||---------------------------|------------------------------------||
A||---------------------------|------------------------------------||
E||---------------------------|------------------------------------||


Bajo
  
G||---------------------------|------------------------------------||
D||---------------------------|------------------------------------||
A||---------------------------|------------------------------------||
E||--2------------------------|-1-----1-1-----1-----1-1-----/--3---||



  * cuarta secuencia de Teclado

  _______________________________________________________
  | | | | | |  | | | | | | | | | | | | |  | | | | | | | |tocar dos veces  
  | | | | | |  | | | | | | | | | | | | |  | | | | | | | |con acompañamiento 
  | |_| |_| |  | |_| |_| |_| | |_| |_| |  | |_| |_| |_| |en Fm
  |  |   |  |  |  |   | 1 |  | 3|   |  | 2|  |   |   |  |tocar en 4ª octava
  |  |   |  |  |  |   | 4 |  |  | 6 | 5|  |  |   |   |  |del teclado y usar
  |__|___|__|__|__|___|___|__|__|___|__|__|__|___|___|__|whiste o parecido
  
  _______________________________________________________
  | | | | | |  | | | | | | | | | | | | |  | | | | | | | |tocar con 
  | | | | | |  | | | | | | | | | | | | |  | | | | | | | |acompañamiento en
  | |_| |_| |  | |_| |_| |_| | |_| |_| |  | |_| |_| |_| |G
  |  |   |  |  |  |   | 1 |  |  | 3 | 2|  |  |   |   |  | 
  |  |   |  |  |  |   | 4 |  | 6| 5 |  |  |  |   |   |  |  
  |  |   |  |  |  |   | 7 | 9| 8|   |  |  |  |   |   |  |                      
  |__|___|__|__|__|___|_10|__|12|_11|__|__|__|___|___|__|Repetir todo 1 vez


Guitarra 1

e||                           |                            ||
B|| Rasgueo en G              | Rasgueo en Fm              ||
G||                           |                            ||
D||                           |                            ||
A||                           |                            ||
E||                           |                            ||


Guitarra 2
  
e||------------------------------------||
B||-4-3-1-3-4-3-1-3-4-3-1-3-4-3-1-3----||
G||------------------------------------||
D||------------------------------------||
A||------------------------------------||
E||------------------------------------||

Bajo
  
G||---------------------------|--------------------------------||
D||---------------------------|--------------------------------||
A||---------------------------|--------------------------------||
E||-3----3--3----3---3--3----|-1-----1-1-----1-----1-1-----/--||

Repetir durante la secuencia de Teclados

""""""""

De aqui en Adelante siguan con lo que ya tienen, la seccion de metales 
son las mismas notas que la de Xylofono, hay unas variaciones del bajo, 
y al llegar a la secuencaia de teclados otra vez, al final acaban 
acompañando con A Se repite otra vez pero con rasgueo de guitarra la parte
desde @@@@@@@@ hasta la marca """""""""
Si les interesa el bajo completo de esta cancion manden un mail
[email protected]

Fuente original: LaCuerda
Colaborador original: ]
Aviso: Este fichero es trabajo propio de su transcriptor y representa su interpretación personal de la canción. El material contenido en esta página es para exclusivo uso privado, por lo que se prohibe su reproducción o retransmisión, así como su uso para fines comerciales.

Califica esta canción


Comentarios en Facebook