Enviado por:
anonimo

Los Bunkers, Canción De Cerca

Imprimir
e------------------------------------------------|
b------------------------------------------------|
g------------------------------------------------| fig.1
d--7----5/7-5----5-6-7-------5/7-5----5-6-7------|
a----7---------7--------7-----------7--------7---|
E------------------------------------------------|

e--------------------------|
b--------------------------|
g--------------------------| x 5
d------5/7-5----5-6/7------|
a-------------7--------7---|
E--------------------------|

e--------------------------|
b--------------------------|
g--------------------------| fig.2
d------5/7-5----5-6/7------|
a-------------7------------|
E--------------------------|


   Fig.2 x 2
Compro vidas sin salida
    Fig.2 x 2
me las venden bien
    Fig.2 x 2
sólo tengo mis heridas
   Fig.2 x 2
en un pie de miel


CORO.

RE        SIm     RE           SIm
Tras el portal congelo mi felicidad
      MIm         LA              MIm
y en tu vida sólo te puedo entretener
       LA        MIm      RE      LA
tú no puedes ofrecer, puedes perder
    MIm       RE      MI
mi vida no es lo que vez


fig.1 x 2



Fig.2 x 2
Siento las ventanas vivas
Fig.2 x 2
yo las preparé
Fig.2 x 2
plantas tus flores podridas
Fig.2 x 2
que no regaré

CORO...



RE    MIm           RE
Y contemplo el perdón
MIm             RE
pagas por el amor
MIm             RE
desconozco mi voz
MIm             LA
SI LA robo del SOL

fig.1 x 2

Compro vidas sin......


CORO.

E        SIm     RE           SIm
Tras el portal congelo mi felicidad
      MIm         LA              MIm
y en tu vida sólo te puedo entretener
       LA        MIm      RE      LA
tú no puedes ofrecer, puedes perder
    MIm       RE       MI
mi vida no es lo que vez


RE    MIm           RE
Y contemplo el perdón
MIm             RE
pagas por el amor
MIm             RE
desconozco mi voz
MIm             LA
SI LA robo del SOL


la mejor canción, vivan lo bunkers.
(RiCkEnBaCkEr)
Aviso: Este fichero es trabajo propio de su transcriptor y representa su interpretación personal de la canción. El material contenido en esta página es para exclusivo uso privado, por lo que se prohibe su reproducción o retransmisión, así como su uso para fines comerciales.

Califica esta canción


Comentarios en Facebook