Enviado por:
anonimo

Camila, Amor Eterno

Imprimir
Hola les dejo esta transcripcion de la cancion
amor eterno de camilaa hay muchas personas
que todavia no la escuchan la vdd io la conoci ayer i me
enamore de ella jaja no es cierto bnoo califikenla aier me
puse a sakarla asi que aqui esta.

Intro:

Guitarra1
e.-------------------------------------------------------
B.-3s12---10-8----------3s12---10-8-----------(8)--------
G.-------------7s9------------------7-----7-9------------
D.--------------------------------------------------(7)--
A.-------------------------------------------------------
E.-------------------------------------------------------

Guitarra2
       G         Asus         G/D          G         D
e.-----------I-----------I-----------I-------------------
B.------3----I------3----I------3----I-------0-1-(3)-----
G.--------2--I---2----2--I---0----0--I---0-----------2---
D.-----0-----I--2--2---2-I--2--2---2-I--0--0---------0---
A.-----------I-0---------I-3---------I-------------------
E.----3------I-----------I-----------I-3-----------------
      X2          X2          X2

SI QUIEREN LOS ACORDES SOLO HAGANLOS
ASI CADA UNO SOLO EN LOS VERSOS COMO LO PONDRE
ACONTINUACION xD... osea qe asi se hace los acordes

      G                C           Am
e.--------------I------(3)----I----------------
B.------3-------I-------3-----I--------3-------
G.---0----0-----I----0----0---I----2-----2-----
D.--0--0---0----I---2--2---2--I---2--2----2----
A.--------------i--3----------I--0-------------
E.-3------------I-------------I----------------

      haganlo dos veces cada uno en esa forma solo
      el la tercera linea donde dice el temor...
      haganlo una ves cada acorde

G                                        C
Hoy amanecí con el deseo firme de continuar
G                                                C
Nunca tuve tantas ganas de entregarme hasta el final
                                        B.-3-3s5-3-1--
                                        G.-----------2
Am        C    G           Am   C        G
El temor se ha ido y descubrí   El amor en ti

Guitarra1
e.-------------------------------8-7---------------
B.--3s12---10-8----------3s12--------8-----10-8-7--
G.--------------7s9--------------------------------
D.-------------------------------------------------
A.-------------------------------------------------
E.-------------------------------------------------

Guitarra2
       G         Asus         G/D          G         D
e.-----------I-----------I-----------I-----------------
B.------3----I------3----I------3----I-------0-1--3----
G.---0----0--I---2----2--I---0----0--I---0-----------2-
D.--0--0---0-I--2--2---2-I--2--2---2-I--0--0---------0-
A.-----------I-0---------I-3---------I-----------------
E.-3---------I-----------I-----------I-3---------------
      X2          X2          X2

        AQUI SIGUEN IGUAL LOS ACORDES

G                                                C
He escuchado mis latidos que gritaban fuerte tu nombre
G                                            C
Me basto sentir para entender y saber hacia donde


                                  AQUI EMPIEZAN ACORDES
Am          C      G    Am     C         D
Vivo con la idea de entregar y aprender a amar

     CORO

 G           Am    C            G   D
Este amor eterno es mi bendición
 G         Am       C         (F)          G
Un presentimiento, esto es para siempre amor


Guitarra1
     G      Am            C          G            D
e.-------------------------------8-7-----------------
B.--3s12---10-8----------3s12--------8-----10-8-7----
G.--------------7s9--------------------------------7-
D.---------------------------------------------------
A.---------------------------------------------------
E.---------------------------------------------------

 G                                               C
No sé por que supe desde siempre que serias para mi
G                                                  C
Que eras lo que dios había mandado para hacerme feliz

Am       C     G         Am     C     D
Vivo con la idea de entregar y aprender a amar


CORO
  G           Am    C            G   D
Este amor eterno es mi bendición
 G         Am       C          (F)         G
Un presentimiento, esto es para siempre amor

  G          Am   C            G   D
Este amor eterno es mi bendición
 G         Am       C         (F)          D
Un presentimiento, esto es para siempre amor
C       Am
Amor    Amor

SOLO
      G               Am
e.-----------------------I---------------
B.-12-12-12---8-10-12-13-I-13-13-13-12-8-
G.-----------------------I---------------
D.-----------------------I---------------
A.-----------------------I---------------
E.-----------------------I---------------
                                X2
    C                     G                     D
e.I--------------------I-10----10--------------10-----10
B.I--------------------I----12----12-12-10-8-7----7-7---
G.I7s9-9-9-9s11-9-11-12I--------------------------------
D.I--------------------I--------------------------------
A.I--------------------I--------------------------------
E.I--------------------I--------------------------------

      G                        Am
e.I---10-------10------------I------------------I
B.I-12----12-12----12-8-10-12I-13-13-13-13-12-8-I
G.I--------------------------I------------------I
D.I--------------------------I------------------I
A.I--------------------------I------------------I
E.I--------------------------I------------------I
                                      X2
   C               (F)      G
e.---------------------------
B.---------------------------
D.-7s9-9s11-11s12------------

   Esto es para siempre amor



G                                    Am
Hoy amaneci con el deseo firme de continuar
C                                      G   D
Hoy amaneci con el deseo firme de continuar
                  X3


        C     (G)
De continuar
Aviso: Este fichero es trabajo propio de su transcriptor y representa su interpretación personal de la canción. El material contenido en esta página es para exclusivo uso privado, por lo que se prohibe su reproducción o retransmisión, así como su uso para fines comerciales.

Califica esta canción


Comentarios en Facebook