Enviado por:
anonimo

Sin Bandera, A Kilómetros

Imprimir
INTRO

e--9-9-9-9-------------------------9-------------9-----------------------
B----------12-12-12--10-10---10-12-------------10---12-10---12-10-9------
G--------------------------9---------9---9-7-9-----------9---------11-9-8
D------------------------------------------------------------------------
A------------------------------------------------------------------------
E------------------------------------------------------------------------


SOLO

e-------7-5-------7-4-4-4-5-4-------------12-10--9-----------------------
B-----5---------5-------------5-5------12----------12-10---7—8b>>>-------
G--/5--------/5--------------------/11-----------------------------------
D------------------------------------------------------------------------
A------------------------------------------------------------------------
E------------------------------------------------------------------------

e--------9-10-12-/14--12-14-16b-16-14-12--9-12-9------------------------
B--10-12-----------------------------------------12-12-10-9--------------
G------------------------------------------------------------------------
D------------------------------------------------------------------------
A------------------------------------------------------------------------
E------------------------------------------------------------------------

e---------------------------------------14-16—16b-----------------------
B------------------------------14-15-17----------------------------------
G------------------11-13-14-16-------------------------------------------
D---------11-12-14-------------------------------------------------------
A---12-14----------------------------------------------------------------
E------------------------------------------------------------------------
Aviso: Este fichero es trabajo propio de su transcriptor y representa su interpretación personal de la canción. El material contenido en esta página es para exclusivo uso privado, por lo que se prohibe su reproducción o retransmisión, así como su uso para fines comerciales.

Califica esta canción


Comentarios en Facebook