Enviado por:
anonimo

Los Bunkers, Llueve Sobre La Ciudad

Llueve sobre la ciudad de Los BunKers...

Intro (0:08)
G-------------------------------------
D-------------------------------------
A-------------------------------------
E---03-5~~-5-3~~-1~~~0~~-03-5~~-3-5~--

Lo intento cada vez mejor...
G-----------------------------------
D-----------0h2-5~~~2h5-3-2--3~~~---
A---0~~~2-3-------------------------
E-----------------------------------

Satisfecho hasta olvidarme...
G----------------------------------------
D-----3-2--------------------------------
A---3------5--3--2--0~-------0-0-0-023---
E-----------------------0~-0-------------

Tengo tantas cosas que decir...
G-------------------------------------
D-------------------------------------
A---5-5-5-5---------5-5-5-5-----------
E-----------5-5-5-5---------5-3-1-0---

Pienso que es muy tarde...
G----------------------------------------------
D------------------------------/5--3-2---------
A---5-5-5-5------------------------------------
E------------5-5-5-5--3-3-3-3----------0-1-3---

Llueve sobre la ciudad...
G----------------------------
D---------------------------- (x3)
A----------------------------
E---55555-33333-11111-3333---

G----------------------------------
D----------------/5-3--0h2-0-------
A----------------------------3-2---
E---55555-33333--------------------

(1:10)
G---------------------------------------------
D------------------------------3-0-2----------
A-----------23---------20---------------------
E---5-5-5-5----3-3-3-3----1-1---------0-1-3---

Voy caminando sin saber...
G---------------------------------------------
D------------------------------3-0-2----------
A-----------23---------20---------------------
E---5-5-5-5----3-3-3-3----1-1---------0-1-3-5-

G-----------------------------
D-----------------------------
A-----------------------------
E-5-5/12--12-12/5--5-5-00-3---

La muerte es mi felicidad...
G-----------------------------------------------------
D---------------5--3--2--0--0--3--2-------------------
A------------7-------------3---------5--3--2----------
E---5--7--8-----------------------------------0-1-3-5-

G-----------------------------
D-----------------------------
A------------------------23---
E-5-5/12--12-12/5--5-5-5------

Tanto tiempo he malgastado aqui...
G-------------------------------------
D-------------------------------------
A---5-5-5-5---------5-5-5-5-----------
E-----------5-5-5-5---------5-3-1-0---

Si tu me devuelves lo que di...
G----------------------------------------------
D------------------------------/5--3-2---------
A---5-5-5-5------------------------------------
E------------5-5-5-5--3-3-3-3----------0-1-3---

Llueve sobre la ciudad...
G----------------------------
D---------------------------- (x3)
A----------------------------
E---55555-33333-11111-3333---

G----------------------------------
D----------------/5-3--0h2-0-------
A----------------------------3-2---
E---55555-33333--------------------

Durante el Solo de Teclado
G-------------------------------------------------------------
D-------------------------------------------------------------
A-----------------------------------------------/7-/7-/7-/7---
E---5~~~01-3~~-3-1~~-0~~~00-3-5~~-3~-03-0-1~~-0---------------

Tengo tantas cosas que decir...
G-------------------------------------
D-------------------------------------
A---5-5-5-5---------5-5-5-5-----------
E-----------5-5-5-5---------5-3-1-0---

Te lo he dicho una y otra vez...
G----------------------------------------------
D------------------------------/5--3-2---------
A---5-5-5-5------------------------------------
E------------5-5-5-5--3-3-3-3----------0-1-3---

Llueve sobre la ciudad...
G----------------------------
D---------------------------- (x3)
A----------------------------
E---55555-33333-11111-3333---

G----------------------------------
D----------------/5-3--0h2-0-------
A----------------------------3-2---
E---55555-33333--------------------

G----------------------------
D---------------------------- (x3)
A----------------------------
E---55555-33333-11111-3333---

G----------------------------------
D----------------/5-3--0h2-0-------
A----------------------------3-2---
E---55555-33333--------------------

G----------------------------
D---------------------------- (x3)
A----------------------------
E---55555-33333-11111-3333---

G----------------------------------
D----------------/5-3--0h2-0-------
A----------------------------3-2---
E---55555-33333--------------------

Outro
G-----
D-----
A-----
E-5~--

el bajo es lo que hace chingona
a la cancion asi q espero les haya gustado,
manden comentarios y califiquen chido ogts!
Aviso: Este fichero es trabajo propio de su transcriptor y representa su interpretación personal de la canción. El material contenido en esta página es para exclusivo uso privado, por lo que se prohibe su reproducción o retransmisión, así como su uso para fines comerciales.

Califica esta canción


Comentarios en Facebook