Enviado por:
meffis123

Rio Roma, Por Si Mañana

Hola a toda la comunidad de tusacordes.com les traigo aqui una transcripcion unica que luego de ver toda informacion y referencia la evalue y deduje esta transcripcion espero les guste cualquier duda o sugerencia no duden en consultarme aqui les dejo el linck de mi facebook para que asi me encuentren mas rapido jeje cuidense besos: https://www.facebook.com/davidzhito.mazznahh
salgo como David Rosales 
Esta cancion la quiero dedicar a una personita muy especial, aquella personita que nunca olvidare ... 
espero les guste suerte 

repite 4 veces: 3 completas y 1 a la mitad.

e.--------------------------------------5/7--5--5/7--5---------------|
b.---5--------5--5/7------5---7---7/8--------------------7/8--7--5---|
g.------5--7-----------7---------------------------------------------|
d.-------------------------------------------------------------------|
a.-------------------------------------------------------------------|
E.-------------------------------------------------------------------|

G                                    Bm
Llevo mucho tiempo intentando no sentir
                                Am
pero no es nada fácil escapar de ti

He intentado ya de todo
        C      D
pero sigues aquí.

G                                       Bm
Y es que es algo tan difícil intentar vivir

cuando estoy con alguien más
                 Am
me acuerdo más de ti
                               C      D
Ay amor este dolor me quiere hacer morir.

Am                          D
Y quien me asegura que mi vida
C                      D
Va a soportar un día mas de dolor.
Am                        D
Y por eso hoy que puedo niña,
C                     D         C
hoy vengo a regalarte mi confesión.

         G                   Bm
Por si mañana muero sin tu amor
                  C
quiero que sepas hoy, que aún
         G    D     C
sigues siendo mi dolor.
               Am
Por más que intento voy y vengo,
                      D
quiero pero no te olvido.

          G                  Bm
Por  si mañana muero sin tu amor,
                  Am
quiero que sepas hoy
          G
que lo que siento por ti es mucho
D                      C
más fuerte de lo que soy.

           Am                    C
Yo sé que esto tal vez no te importe
               D
y mucho menos yo     G
pero quería decirtelo.

INTRO.... 

repite 2 veces: 1 completa y 1 a la mitad.

e.--------------------------------------5/7--5--5/7--5---------------|
b.---5--------5--5/7------5---7---7/8--------------------7/8--7--5---|
g.------5--7-----------7---------------------------------------------|
d.-------------------------------------------------------------------|
a.-------------------------------------------------------------------|
E.-------------------------------------------------------------------|

G                                   Bm
Ya gasté todas mi lágrimas por extrañar,
                                    C
ya perdí toda esperanza y el poder soñar,
                            Am       D
he perdido casi todo, menos mi soledad.

Am                          D
Y quien me asegura que mi vida
C                      D
Va a soportar un día mas de dolor.
Am                        D
Y por eso hoy que puedo niña,
C                     D         C
hoy vengo a regalarte mi confesión.

         G                   Bm
Por si mañana muero sin tu amor
                  C
quiero que sepas hoy, que aún
         G    D     C
sigues siendo mi dolor.
               Am
Por más que intento voy y vengo,
                      D
quiero pero no te olvido.

          G                  Bm
Por  si mañana muero sin tu amor,
                  Am  C
quiero que sepas hoy
          G
que lo que siento por ti es mucho
D                      C
más fuerte de lo que soy.

           Am                    C
Yo sé que esto tal vez no te importe
               D
y mucho menos yo
           Am                    C
Yo sé que esto tal vez no te importe
               D
y mucho menos yo...

dos guitarras : se hacen juntas [ primero comienza la tablatura, despues entran los acordes al momento que el cantante empiece el final] 

tablatura : repite 3 veces: 1 normal completa, 1 con final pausado , 1 con final rítmico 

repite 3 veces completa y una ves mas pero en mitad.

e.--------------------------------------5/7--5--5/7--5---------------|
b.---5--------5--5/7------5---7---7/8--------------------7/8--7--5---|
g.------5--7-----------7---------------------------------------------|
d.-------------------------------------------------------------------|
a.-------------------------------------------------------------------|
E.-------------------------------------------------------------------|

acordes : 
Am      Bm            G o siii no es C
  pero quería decirtelo.



gracias espero les guste cuídense suerte a todos ...
Aviso: Este fichero es trabajo propio de su transcriptor y representa su interpretación personal de la canción. El material contenido en esta página es para exclusivo uso privado, por lo que se prohibe su reproducción o retransmisión, así como su uso para fines comerciales.

Califica esta canción


Comentarios en Facebook