Enviado por:
TITI Demian

Ciro Y Los Persas, Caminando

Lam,Sol,*La/Re,Fa.
*El segundo La el *La/re nose muy bien como se llama asi que digamso que es un La/re.. :P 
  2°Guitarra CAPO.[2 casillero]         [///]=Deslizar  [x]=sonido o golpe apagado  [b]= vibrar la cuerda o cuerdas.
[r]=estirar cuerda.

 6 5 4 3 2 1
|-----------|     1
 
|-----------|      2 
 @     @
|-----------|      3
         @
|-----------|      4

   La/re



1------------------------------------------------------|----------------------|                
2---8///10-0-----10---10-----0--8///10--0-----10-----10|----------------------|             
3---7///9--0------9----9-----0--7///-9--0------9------9|-///7---7-5-----------|                 
4----------0-----------------0----------0--------------|-------------7--7b--|    RIFF 1 2°Guitarra
5------------------------------------------------------|----------------------|                 
6------------------------------------------------------|----------------------|                
          .2 veces todo el riff completo!                                               
                                                                                               
1° Guitarra                                                                                                       
En esta parte es como un tipo escalera 

1-----------------------------------------------------------|
2-----------------------------------------------------------|
3-----------------------------------------------------------|
4--------------------------------------------5-5----3b------|   RIFF 2 1°Guitarra
5----------3-4-5-----------------------3-4-5----------------|
6---3-4-5--------3-4-5---3-4-5---3-4-5----------------------| 

1----5--x--5----|------------------|-
2----8r-x--8r---|------------------|- 
3---------------|----7b--7-5-------|-
4---------------|-------------7----|-  RIFF 3 o SOLO.
5---------------|------------------|-
6---------------|------------------|-






 INTRO RIFF 1[2v.]                



RIFF 2 

Saliendo de Mackena un rato antes que salga el sol           
yo no tengo GPS pero tengo mucho amor, 
también tengo algún defecto pero hay uno que es peor 
es que escucho por la boca, acércate corazón. 
RIFF 1 
Háblame, háblame, háblame, háblame por favor 
    RIFF 1-----------------------------------------[Empieza de nuevo esa parte con el RIFF 2]                    
como siempre dice Axel cuando pierde la razón, 
uh, nunca es fácil, uh, ya lo ves, 
el que no se conforma sabe que puede doler.
 RIFF 3 [2v.] 

RIFF 2
Nacimos ocho hermanos y de todos fui el menor, 
mi viejo venia poco sino eramos veintidós, 
hoy no vive ninguno y no es que yo sea el mejor, 
solo tengo algo de suerte y olfato depredador. 
     
RIFF 1
Duermo con un ojo abierto y confió en mi intuición, 
tengo dientes afilados listo para el mordiscó, 
RIFF 2 [Empieza] 
uh, nunca es fácil, uh, ya lo ves, 
el que no se conforma sabe que puede doler. 
LAm_.
Sigue y no cedas, 
con obstinación.
SOL_. 
Sigue y no cedas, 
no hay solución.
La/re_. 
podés ser el Rey,
FA_. 
pero al día siguiente 
un bufón sin piel. 
RIFF 2

Con tentación,emoción,ilucion,emoción devoras lo que un dia deje.
Con tentación,emoción,ilucion,erección embullis lo que un dia deje. 
RIFF 2

Nacimos ocho hermanos y de todos fui el menor, 
mi viejo venia poco sino eramos veintidós, 
uh, nunca es fácil, uh, ya lo ves, 
el que no se conforma sabe que puede doler. 
FA_.    SOL_.
Y va a doler.. 
Lam_.
Sigue y no cedas, 
con obstinación.
Sol 
Sigue y no cedas, 
no hay solución.
Re/la_. 
Sigue y no cedas, 
podés ser el Rey,
FA_. 
pero al día siguiente 
un bufón sin piel.
Lam_. 
Sigue y no cedas, 
cruzando el dolor.
Sol_. 
Sigue y no cedas, 
uh, ya va a estar mejor.
La/Re 
Sigue y no cedas, 
si queres dormir
Fa 
tírate en mi cama 
me dijo el faquir.
 
Solo______________

Con obstinación, 
no hay absolución. 
Podes ser el Rey, 
un bufón sin piel. 
Sigue y no cedas, 
cruzando el dolor. 
Sigue y no cedas, 
uh, ya va a estar mejor. 
Sigue y no cedas, 
si queres dormir 
tírate en mi cama 
me dijo el faquir.

Bueno chicos eso seria todo n.n espero que le alla servido mucho c: un saludo muy fuerte!!!
      ?Demian Agsutin Tambuqui.
Aviso: Este fichero es trabajo propio de su transcriptor y representa su interpretación personal de la canción. El material contenido en esta página es para exclusivo uso privado, por lo que se prohibe su reproducción o retransmisión, así como su uso para fines comerciales.
comentario del colaborador: |

Califica esta canción


Comentarios en Facebook