Enviado por: guza
Agrandar Letra
Reducir Letra
Imprimir

Acordes:
½ tono
| +0 |
½ tono
||
Volver





Bob Marley, Redemption Song

Tono: G
		
Intro:


E|---------------------------------------------------|
B|---------------------------------------------------|
G|---------------------------------------------------|
D|-------------------0h2-0---------------------------|
A|-----0-0h2-----2h3-------0h2-----------------------|
E|-2h3-------2h3-------------------------------------|




E|---------------------------------------------------|
B|---------------------------------------------------|
G|---------------------------------------------------|
D|---------0-----------------------------------------|
A|-----0-2---2-3-2-0---------------------------------|
E|-2h3---------------3-------------------------------|




E|---------------------------------------------------|
B|---------------------------------------------------|
G|---------------------------------------------------|
D|-------------------0h2-0---------------------------|
A|-----0-0h2-----2h3-------0h2-----------------------|
E|-2h3-------2h3-------------------------------------|




E|---------------------------------------------------|
B|--------------5-3-1--------------------------------|
G|---------------------------------------------------|
D|---------0-----------------------------------------|
A|-----0-2---2--3-2-0--------------------------------|
E|-2h3-----------------------------------------------|


Primera parte:
G                         Em
  Old Pirates, yes, they rob I.
 C             G         Am
Sold I to the merchant ships
G                        Em  C          G           Am
 Minutes after they took I    from the bottom less pit.
        G        Em
But my hand was made strong
C        G             Am
 By the hand of the Almighty.
    G                   Em    C   G       D
We forward in this generation  triumphantly.

Refr?o:
                   G    C        D         G
Won\'t you help to sing    these songs of freedom?
       C     D    [ Em  Em7 Em Em7 Em C
\'Cause all I ever have,
   D ] [4x]
Redemption songs. [3x]

       G                            Em
Emancipate yourselves from mental slavery,
             C           G       Am
None but ourselves can free our minds.
         G              Em
Have no fear for atomic energy,
                 C        G       Am
\'Cause none of them can stop the time.
     G                         Em
How long shall they kill our prophets
           C     G        Am
While we stand aside and look?
           G               Em
Yes, some say it\'s just a part of it.
       C         G        D
We\'ve got to fulfill the book.

coro:
                   G    C        D         G
Won\'t you help to sing    these songs of freedom?
      C     D    [ Em  Em7 Em Em7 Em C
\'Cause all I ever have,
   D ] [4x]
Redemption songs. [3x]

[ Em  C  D ] [4x]
Aviso: Este fichero es trabajo propio de su transcriptor y representa su interpretación personal de la canción. El material contenido en esta página es para exclusivo uso privado, por lo que se prohibe su reproducción o retransmisión, así como su uso para fines comerciales.

Califica esta canción


Comentarios en Facebook