Acordes y tablaturas para guitarra

Acordes y Tablaturas
Usuario: Password:

Buscar:
Acordes y Tablaturas >> Letra L >> Acordes de La Mississippi Blues Band >> Bufalo
Tablatura de Bufalo, La Mississippi Blues Band

Bufalo

La Mississippi Blues Band






El ritmo es parecido al de "personal jesus" de muchos otros artistas, as? que ? a practicar !
INTRO: RIFF 1+ RIFF 2

RIFF1:
1|------------------------|--------------------|----------------|
2|------------------------|--------------------|----------------|
3|------------------------|--------------------|----------------|
4|-------------2----------|-------------2------|-----------2----|
5|------------------------|---------------0-2--|-------------0-2|
6|-0-----3--0-----3--0----|-0-----3--0---------|-0----3--0------|

RIFF2:
1|--x-x---x-x-------------|--------------------|
2|--x-x---x-x-------------|--------------------|
3|--x-x---x-x-------------|--------------------|
4|--5-5---7-7-------------|--------------------|
5|--5-5---7-7-------------|--------------------|
6|--3-3---5-5-------------|--------------------|

La canci?n es con este ritmo

RIFF1
Vengo empujando de lejos 
Como un r?o viejo, 
Que no va a parar. RIFF2 
RIFF1
Unos dicen que soy brusco 
Porque siempre busco 
Ir con la verdad RIFF2
RIFF1
Yo soy manso entre los mansos 
Pero si me canso 
Soy un temporal RIFF2
RIFF1
Tengo el coraz?n de acero 
Y mi alma de cuero, 
Lleva un animal RIFF2

Estribillo
G                    D      A
Y nunca miro para atr?s 
F            A7
Como un B?falo,
G                      D        A
Es que el instinto puede m?s 
F            A7
Como un B?falo,
G            D  Em
Va a ser mejor, mejor no molestes mi b?falo interior 

RIFF1
No tengo en la lengua pelos 
Yo no doy consuelos 
Si no va, no va RIFF2
RIFF1
No me anden sobando el lomo 
Todo lo perdono, 
Menos falsedad RIFF2
RIFF1
Cuando yo doy mi palabra 
Aunque el cielo se abra, 
La voy a cumplir, RIFF2
RIFF1
Con toda la carne al fuego 
Pongo sangre y huevo 
Es lo que aprend?. RIFF2

Estribillo
Y nunca miro para atr?s 
Como un b?falo, 
Es que el instinto puede m?s, 
Como un b?falo 
Va a ser mejor, 
Mejor no molestes mi B?falo interior 
Nunca miro para atr?s 
Como un b?falo, 
Es que el instinto puede m?s, 
Como un b?falo 
Va a ser mejor, 
Mejor no molestes mi B?falo interior

Gracias ! si hay alg?n error porfavor t?mate la molestia de comentar ! Emanuel.

Que te parecio? Calificalo con estrellas!!

Rating: 0.0/10 (0 votos)

Este fichero es trabajo propio de su transcriptor y representa su interpretación personal de la canción. El material contenido en esta página es para exclusivo uso privado, por lo que se prohibe su reproducción o retransmisión, así como su uso para fines comerciales.


Deja tus comentarios:
Letras de canciones | Musica Independiente