Acordes y tablaturas para guitarra

Acordes y Tablaturas
Usuario: Password:

Buscar:
Acordes y Tablaturas >> Letra M >> Acordes de Mana >> Hasta Que Te Conoci
Tablatura de Hasta Que Te Conoci, Mana

Hasta Que Te Conoci

Mana






Estos son Todos los punteos de la cancion de Maná: Hasta que te conoci, Hechos por mí. Disfrutenlo

Intro:

1 -----5-------5-------5-------5-----3-------
2 -----------------------------------3-------
3 ---7---7---6---6---5---5---4---4---3-------
4 -----------------------------------0-------
5 -----------------------------------0-------
6 0--------0-------0-------0---------3-------

1 -------------------------------------------
2 --------------------------2----------------
3 --------------------------2----------------
4 --------------------------2----------------
5 -----------6-6-5-5-3h4p3--0----------------
6 -3h5-6-5-3---------------------------------

Eso Me enseño mama..

1 ----5----6----------
2 --------------------
3 -5/6--6/7-----------
4 --------------------
5 --------------------
6 --------------------

Eso Me enseño mama #2..

1 -------4-------------------
2 -2-3-5--------------------
3 ---------------------------
4 ---------------------------
5 ---------------------------
6 ---------------------------

Eso y Muchas Cosas Mas..

1 -------------------------------------------------------
2 -------------10h11-13--15-14------------10/9-----------
3 8h9-11-12/13-----------------13h14p13-------10h9-5-3-2-
4 --------------------------------------11---------------
5 -------------------------------------------------------
6 -------------------------------------------------------

Yo jamas sufri..

1 --------------------------------------------
2 --------------------------------------------
3 --------------------------------------------
4 --------13---------14-13-13-12/10h8-8-------
5 --10/12---11h13-13--------------------------
6 --------------------------------------------

Yo era Muy Feliz..

1 ----------12-12-12-----------
2 -10-10-11----------11h10-8---
3 -----------------------------
4 -----------------------------
5 -----------------------------
6 -----------------------------

Interlude (electrica) 
Porque Ahora pienso en ti, Mas que ayer, Mucho Mas..
                                                   
------------------------------------------------- X4
-------------------------------------------------
-------------------------------------------------
-------------------------------------------------
--------------5------------------------7---------
-5-6-5-6-5-6-5-5-5-4-3---5-6-5-6-5-6-5--5-3-1-5--

Solo de Guitarra:

1 --5--5-5--------5-5---------5-5-6----------------------
2 -----------6h8------6-6-----------8---5-5-8-8-5-5-8-8--
3 -------------------------------------------------------
4--------------------------------------------------------
5--------------------------------------------------------
6--------------------------------------------------------

1 ------------6--5------
2 ---5-5-8-8------------
3 ----------------------
4 ----------------------
5 ----------------------
6 ----------------------

Vete No te Quiero, No te quiero ver jamas..

1 --------10----10---8-9-10-12-----12-12------12--15-13p12h13-10-
2 --10-10----10-----------------10-------10-10-------------------
3 ---------------------------------------------------------------
4 ---------------------------------------------------------------
5 ---------------------------------------------------------------
6 ---------------------------------------------------------------

Que te parecio? Calificalo con estrellas!!

Rating: 7.5/10 (4 votos)

Este fichero es trabajo propio de su transcriptor y representa su interpretación personal de la canción. El material contenido en esta página es para exclusivo uso privado, por lo que se prohibe su reproducción o retransmisión, así como su uso para fines comerciales.


Comentario de Kami301197
Aquí les dejo mi cover, yo la hice a guitarra acustica.
Deja tus comentarios:

Letras de Mana
Letras de canciones | Musica Independiente