Acordes y tablaturas para guitarra

Acordes y Tablaturas
Usuario: Password:

Buscar:
Acordes y Tablaturas >> Letra 2 >> Acordes de 2NE1 >> Lonely
Tablatura de Lonely, 2NE1

Lonely

2NE1






C                                   E
e:-----------------|-----------------|-----------------|-----------------|
B:-1---------1-----|-1---------1-----|-3---------3-----|-3---------3-----|
G:-------0-------0-|-------0-------0-|-------0-------0-|-------0-------0-|
D:-----2-------2---|-----2-------2---|-----------------|-----------------|
A:-3-------3-------|-3-------3-------|-----2-------2---|-----2-------2---|
E:-----------------|-----------------|-0-------0-------|-0-------0-------|

  Am                                  G
e:-----------------|------3~---------|-----------------|-----------------|
B:-1---------1-----|-0h1-------1-----|-0---------0-----|-0---1---3-------|
G:-------2-------2-|---------------2-|-------0-------0-|-0---0---0-------|
D:-----2-------2---|-------------2---|-----0-------0---|-----------------|
A:-0-------0-------|-0---------------|-----------------|-----------------|
E:-----------------|-----------------|-3-------3-------|-3---3---3-------|

  C(add9)                             E
e:-----------------|-0---------------|-----------------|-0---------------|
B:-3---------3-----|-----------3-----|-3---------3-----|-----------3-----|
G:-------0-------0-|-------0-------0-|-------0-------0-|-------0-------0-|
D:-----2-------2---|-----2-------2---|-----------------|-----------------|
A:-3-------3-------|-3-------3-------|-----2-------2---|-----2-------2---|
E:-----------------|-----------------|-0-------0-------|-0-------0-------|

  Am                                  G
e:-----------------|------3~---------|-----------------|-----------------|
B:-1---------1-----|-0h1-------1-----|-0---------0-----|-0---1---3-------|
G:-------2-------2-|---------------2-|-------0-------0-|-0---0---0-------|
D:-----2-------2---|-------------2---|-----0-------0---|-----------------|
A:-0-------0-------|-0---------------|-----------------|-----------------|
E:-----------------|-----------------|-3-------3-------|-3---3---3-------|

  C(add9)                             E
e:-----------------|-0---------------|-----------------|-0---------------|
B:-3---------3-----|-----------3-----|-3---------3-----|-----------3-----|
G:-------0-------0-|-------0-------0-|-------0-------0-|-------0-------0-|
D:-----2-------2---|-----2-------2---|-----------------|-----------------|
A:-3-------3-------|-3-------3-------|-----2-------2---|-----2-------2---|
E:-----------------|-----------------|-0-------0-------|-0-------0-------|

  Am                                  G
e:-----------------|------3~---------|-----------------|-----------------|
B:-1---------1-----|-0h1-------1-----|-0---------0-----|-0---1---3-------|
G:-------2-------2-|---------------2-|-------0-------0-|-0---0---0-------|
D:-----2-------2---|-------------2---|-----0-------0---|-----------------|
A:-0-------0-------|-0---------------|-----------------|-----------------|
E:-----------------|-----------------|-3-------3-------|-3---3---3-------|

  C(add9)                             E
e:-----------------|-0---------------|-----------------|-0---------------|
B:-3---------3-----|-----------3-----|-3---------3-----|-----------3-----|
G:-------0-------0-|-------0-------0-|-------0-------0-|-------0-------0-|
D:-----2-------2---|-----2-------2---|-----------------|-----------------|
A:-3-------3-------|-3-------3-------|-----2-------2---|-----2-------2---|
E:-----------------|-----------------|-0-------0-------|-0-------0-------|

  Am                                  G#?               A#? (or 688xxx)
e:-----------------|------3~---------|-----------------|-----------------|
B:-1---------1-----|-0h1-------1-----|-----------------|-3---------------|
G:-------2-------2-|---------------2-|-5---------------|-3---------------|
D:-----2-------2---|-------------2---|-6---------------|-3---------------|
A:-0-------0-------|-0---------------|-6---------------|-1---------------|
E:-----------------|-----------------|-4---------------|-----------------|


Chorus:
C E Am G

         C                       E7
Baby I'm sorry neowa isseodo nan lonely
                  Am
Saranghagin naega bujokhanga bwa
      G
Ireon motnan nal yongseohae
    C                    E7
I'm sorry ige neowa naui story
                  Am
Sarangiran naegen gwabunhanga bwa
         G 
Ne gyeote isseodo

Baby I'm so lonely lonely lonely lonely lonely x4

Que te parecio? Calificalo con estrellas!!

Rating: 10.0/10 (4 votos)

Este fichero es trabajo propio de su transcriptor y representa su interpretación personal de la canción. El material contenido en esta página es para exclusivo uso privado, por lo que se prohibe su reproducción o retransmisión, así como su uso para fines comerciales.


Comentario de CrisMnk
Espero y Les Guste
Deja tus comentarios:
Letras de canciones | Musica Independiente