Acordes y tablaturas para guitarra

Acordes y Tablaturas
Usuario: Password:

Buscar:
Acordes y Tablaturas >> Letra N >> Acordes de NIRVANA >> The Man Who Sold The World
Tablatura de The Man Who Sold The World, NIRVANA

The Man Who Sold The World

NIRVANA






The Man Who Sold The World

------INTRO------

   Guitarra 1
e|---------------------|X2
B|---------------------|        
G|-2-2-2-0-2-3-2-0-----|
D|---------------------|  
A|---------------------| 
E|---------------------|

   Guitarra 2 Solo un Rasgueo
Dm

   Guitarra 1
e|---------------------|X2
B|---------------------|        
G|-2-2-2-0-2-3-2-0-----|
D|---------------------|  
A|---------------------| 
E|---------------------|

Guitarra 2 en acorde y en ?Dm? solo un Rasgueo
F                     F                  Dm
   Guitarra 1
e|---------------------|------------------|-----|
B|---------------------|------------------|-----|
G|-2-2-2-0-2-3-2-0-----|-2-2-2-0-2-3-2-0--|-2---|
D|---------------------|------------------|-----|
A|---------------------|------------------|-----|
E|---------------------|------------------|-----|



   Las Dos Guitarras
                     A 
We passed upon the stairs
                    Dm
Spoken walls and wells
                    A 
Although I wasn´t there
                     F
He said I was his friend
                      C
Which came as so surprised
                  A 
I spoke into his eyes
                A   Dm
I thought you died alone
                     C
A long, long time ago
<(guitarra 2 en lugar del ultimo acorde se empieza con la escala de ?C?)>

-----CORO-----
   Guitarra 1
           F
Oh no, not me

-----CORO-----
   Guitarra 2 
  [Escala Mayor de C]         [Escala Mayor de F]
e|-------------------|X3   e|-------------------|
B|-------------------|     B|-------------------|                    
G|------------2-4-5--|     G|-------------------| 
D|------2-3-5--------|     D|------------0-2-3--|
A|--3-5--------------|     A|------0-1-3--------|
E|-------------------|     E|--1-3--------------|

   Guitarra 1
   Bb                F
We never lost control

   Guitarra 2
e|---------------|
B|---------------|                       
G|---------------|    
D|--------3------|   
A|--4---4-----4--|   
E|---------------|

   Guitarra 1     
          C        F
You're face to face

   Guitarra 2
 [Escala Mayor de F]    [Escala Mayor de C]    [Escala Mayor de F]
e|------------------|  e|------------------|  e|------------------|
B|------------------|  B|------------------|  B|------------------|
G|------------------|  G|------------2-4-5-|  G|------------------|
D|------------0-2-3-|  D|------2-3-5-------|  D|------------0-2-3-|
A|------0-1-3-------|  A|--3-5-------------|  A|------0-1-3-------|
E|--1-3-------------|  E|------------------|  E|--1-3-------------|

   Guitarra 1     
         Bb                    A 
With the man who sold the world

   Guitarra 2
e|---------------|
B|---------------|                       
G|---------------|    
D|--------3------|   
A|--4---4-----4--|   
E|---------------|

   Guitarra 2 Solo un Rasgueo cuando acaba en ?World?
  A 
   
   Guitarra 1
e|---------------------|X2
B|---------------------|        
G|-2-2-2-0-2-3-2-0-----|
D|---------------------|  
A|---------------------| 
E|---------------------|

   Guitarra 2 Solo un Rasgueo
Dm

   Guitarra 1
e|---------------------|X2
B|---------------------|        
G|-2-2-2-0-2-3-2-0-----|
D|---------------------|  
A|---------------------| 
E|---------------------|

Guitarra 2 en acorde y en ?Dm? solo un Rasgueo
F                     F                  Dm
   Guitarra 1
e|---------------------|------------------|-----|
B|---------------------|------------------|-----|
G|-2-2-2-0-2-3-2-0-----|-2-2-2-0-2-3-2-0--|-2---|
D|---------------------|------------------|-----|
A|---------------------|------------------|-----|
E|---------------------|------------------|-----|


   Las Dos Guitarras
                         A 
I laughed and shook his hand
                   Dm
Made my way back home
                         A 
I searched from farther land
                      F
Years and years I roamed
                     C
I gazed all gazers there
                     A 
We walked a million hills
             A     Dm
I must have died alone
                     C
A long, long time ago
<(guitarra 2 en lugar del ultimo acorde se empieza con la escala de ?C?)>

   Guitarra 1
               F
Who knows, not me

-----CORO-----
   Guitarra 2 x
  [Escala Mayor de C]         [Escala Mayor de F]
e|-------------------|X3   e|-------------------|
B|-------------------|     B|-------------------|                    
G|------------2-4-5--|     G|-------------------| 
D|------2-3-5--------|     D|------------0-2-3--|
A|--3-5--------------|     A|------0-1-3--------|
E|-------------------|     E|--1-3--------------|

   Guitarra 1
  Bb                F
I never lost control

   Guitarra 2
e|---------------|
B|---------------|                       
G|---------------|    
D|--------3------|   
A|--4---4-----4--|   
E|---------------|

   Guitarra 1
          C       F
You're face, to face

   Guitarra 2
 [Escala Mayor de F]    [Escala Mayor de C]    [Escala Mayor de F]
e|------------------|  e|------------------|  e|------------------|
B|------------------|  B|------------------|  B|------------------|
G|------------------|  G|------------2-4-5-|  G|------------------|
D|------------0-2-3-|  D|------2-3-5-------|  D|------------0-2-3-|
A|------0-1-3-------|  A|--3-5-------------|  A|------0-1-3-------|
E|--1-3-------------|  E|------------------|  E|--1-3-------------|

   Guitarra 1
         Bb               A 
With the man who sold the world

   Guitarra 2
e|---------------|
B|---------------|                       
G|---------------|    
D|--------3------|   
A|--4---4-----4--|   
E|---------------|


   Guitarra 2 Solo un Rasgueo cuando acaba en ?World?
  A 
   
   Guitarra 1
e|---------------------|X2
B|---------------------|        
G|-2-2-2-0-2-3-2-0-----|
D|---------------------|  
A|---------------------| 
E|---------------------|

   Guitarra 2 Solo un Rasgueo
Dm

   Guitarra 1
e|---------------------|X2
B|---------------------|        
G|-2-2-2-0-2-3-2-0-----|
D|---------------------|  
A|---------------------| 
E|---------------------|

   Guitarra 1
               F
Who knows, not me

-----CORO-----
   Guitarra 2 
  [Escala Mayor de C]         [Escala Mayor de F]
e|-------------------|X3   e|-------------------|
B|-------------------|     B|-------------------|                    
G|------------2-4-5--|     G|-------------------| 
D|------2-3-5--------|     D|------------0-2-3--|
A|--3-5--------------|     A|------0-1-3--------|
E|-------------------|     E|--1-3--------------|

   Guitarra 1
  Bb                F
I never lost control

   Guitarra 2
e|---------------|
B|---------------|                       
G|---------------|    
D|--------3------|   
A|--4---4-----4--|   
E|---------------|

   Guitarra 1
          C       F
You're face, to face

   Guitarra 2
 [Escala Mayor de F]    [Escala Mayor de C]    [Escala Mayor de F]
e|------------------|  e|------------------|  e|------------------|
B|------------------|  B|------------------|  B|------------------|
G|------------------|  G|------------2-4-5-|  G|------------------|
D|------------0-2-3-|  D|------2-3-5-------|  D|------------0-2-3-|
A|------0-1-3-------|  A|--3-5-------------|  A|------0-1-3-------|
E|--1-3-------------|  E|------------------|  E|--1-3-------------|

   Guitarra 1
         Bb               A 
With the man who sold the world

   Guitarra 2 Solo un Rasgueo cuando acaba en ?World?
  A 
   
   Guitarra 1
e|---------------------|X2
B|---------------------|        
G|-2-2-2-0-2-3-2-0-----|
D|---------------------|  
A|---------------------| 
E|---------------------|

   Guitarra 2 Solo un Rasgueo
Dm

   Guitarra 1
e|---------------------|X2
B|---------------------|        
G|-2-2-2-0-2-3-2-0-----|
D|---------------------|  
A|---------------------| 
E|---------------------|

Guitarra 2 en acorde y en ?Dm? solo un Rasgueo
F                     F                  Dm

   Guitarra 1
e|---------------------|------------------|-----|
B|---------------------|------------------|-----|
G|-2-2-2-0-2-3-2-0-----|-2-2-2-0-2-3-2-0--|-2---|
D|---------------------|------------------|-----|
A|---------------------|------------------|-----|
E|---------------------|------------------|-----|

-----Solo:-----

   Guitarra 2
 A             Dm

   Guitarra 1
e|-------------------------------------------------|
B|-------------------------------------------------|        
G|-/9-9-9-9-9-9--2-2-2-0--2h3p2-0--2-2-2-0-2h3p2-0-|
D|-------------------------------------------------|  
A|-------------------------------------------------| 
E|-------------------------------------------------|

   Guitarra 2
   F                   Dm              A

   Guitarra 1
e|----------------------------------------------------|
B|----------------------------------------------------|        
G|-/10-10-10-10-10-10--9--/7-7-7-7-7-7-/9-9-9-9-9-9---|
D|----------------------------------------------------|  
A|----------------------------------------------------| 
E|----------------------------------------------------|

   Guitarra 2
  Dm

   Guitarra 1
e|------------------------------------------------|
B|------------------------------------------------|        
G|-2-2-2-0-2h3p2-0-2-2-2-0--2h3p2-0---------------|
D|------------------------------------------------|  
A|------------------------------------------------| 
E|------------------------------------------------|

   Guitarra 2
   F                  Dm               A

   Guitarra 1
e|----------------------------------------------------|
B|----------------------------------------------------|        
G|-/10-10-10-10-10-10--9--/7-7-7-7-7-7-/9-9-9-9-9-9---|
D|----------------------------------------------------|  
A|----------------------------------------------------| 
E|----------------------------------------------------|

   Guitarra 2
   Dm                                F

   Guitarra 1
e|------------------------------------------------|
B|------------------------------------------------|        
G|-2-2-2-0-2h3p2-0-2-2-2-0--2h3p2-0--2------------|
D|------------------------------------------------|  
A|------------------------------------------------| 
E|------------------------------------------------|

Que te parecio? Calificalo con estrellas!!

Rating: 10.0/10 (2 votos)

Este fichero es trabajo propio de su transcriptor y representa su interpretación personal de la canción. El material contenido en esta página es para exclusivo uso privado, por lo que se prohibe su reproducción o retransmisión, así como su uso para fines comerciales.


Comentario de CrisMnk
Espero Q Les Guste!!!
Deja tus comentarios:
Letras de canciones | Musica Independiente