Acordes y tablaturas para guitarra

Acordes y Tablaturas
Usuario: Password:

Buscar:
Acordes y Tablaturas >> Letra J >> Acordes de Jesse Y Joy >> Llorar
Acordes de Llorar, Jesse Y Joy

Llorar

Jesse Y Joy






b.bbm.csos.csosm.dsosm.e.fsos.gsosm.
quieren mas informacion escribanme a mi correo [email protected]  dale me gusta y seguire poniendo o pidanme temas.............aqui les dejo el tema jesse y joy .-llorar

    G#m                            D#m                         C#
e---7-------7----9-----11-------6-----6-------------6---------------
B-----9-------9----9------9-------7------7----9-7-----7-------------
G-------8-------8----8------8--------8----- 8------8-----8-----------
D-------------------------------------------------------------------
A-------------------------------------------------------------------
E------------------------------------------------------------------- 2 VECES

       F#               C#
Me perdí buscando ese lugar
   D#m
Todo por tratar de demostrar
C#    C#m          B
Olvide que sin tu amor
         F#
No valgo nada
   C#m        B         F#
Y tome una vuelta equivocada
  D#m             C#
Me quede sin movimiento
  B                    F#
Sin saber por donde regresar
  D#m           C#
Lleno de remordimiento
  B
Dejándote detrás,
fingir ser alguien mas

  D#m            C#
Y llorar, y llorar, [y llorar]
   B                      F#
No sirve de nada ahora que te perdí
 D#m            C#
Te quiero recuperar
Bbm    B       F#   G#m      E
Ven    sálvame, despiérteme, rescátame

    G#m                            D#m                         C#
e---7-------7----9-----11-------6-----6-------------6---------------
B-----9-------9----9------9-------7------7----9-7-----7-------------
G-------8-------8----8------8--------8----- 8------8-----8----------- 2 veces
 Del sufrimiento                        , ohh noo...
       [Del sufrimiento]
   F#                        C#
Tengo la esperanza que el dolor
   D#m
Cambie y se transforme en tu perdón
   C#m         B         F#
Navegar en un mar sin fantasmas
   C#m          B          F#
Y la luz de tu amor sea mi mapa
   D#m               C#
Juro que es verdad no miento
   B               F#
Que mi voluntad es cambiar
  D#m            C#
Pero sola yo no puedo
   B
No se como lograr
               C#
Mi alma reparar

 D#m             C#
Y llorar, y llorar, [y llorar]
  B                      F#
No sirve de nada ahora que te perdí
 D#m           C#
Te quiero recuperar
Bbm    B      F#    G#m     E
Ven   sálvame, despiérteme, rescátame
       D#m
Del sufrimiento
   B          C#
[Del sufrimiento]
   D#m         B
[Del sufrimiento]

  D#m           C#
Y llorar, y llorar...
  Bbm                    D#m
No sirve de nada ahora que te perdí
     B                      C#
Te quiero recuperar
Bbm    B      F#   G#m      E
Ven   sálvame, despiérteme, rescátame

    G#m                            D#m                         C#
e---7-------7----9-----11-------6-----6-------------6---------------
B-----9-------9----9------9-------7------7----9-7-----7-------------
G-------8-------8----8------8--------8----- 8------8-----8----------- 2 veces
 Del sufrimiento                   , ohh noo...
       [
]
  D#m           C#
Y llorar... y llorar.

Que te parecio? Calificalo con estrellas!!

Rating: 10.0/10 (5 votos)

Este fichero es trabajo propio de su transcriptor y representa su interpretación personal de la canción. El material contenido en esta página es para exclusivo uso privado, por lo que se prohibe su reproducción o retransmisión, así como su uso para fines comerciales.


Deja tus comentarios:
Letras de canciones | Musica Independiente