Enviado por: DisipuloxD
Agrandar Letra
Reducir Letra
Imprimir


Otras Versiones de Campana Sobre Campana:




Villancicos, Campana Sobre Campana

. Campana sobre...
E:---------------------------------------------------------
B:---------------------------------------------------------
G:---------------------------------------------------------
D:0---0--0--0--0--2-------2--2--4--5--4--2--4--2--0--------
A:---------- 4------4--0----------------------------------
E:---------------------------------------------------------

(Todo 2 veces)

. Belén Campanas?

E:-------------------------------------------------------
B:------------------------------2--3-----------------------
G:--2--4--2--0--4--2--2--4--2--4------2-4--2--0------------
D:4---4------------------------------------------4--2---0-
A:---------------------------------------------------------
E:--------------------------------------------------------


. Recogido tu Rebaño?

E:------------------------------------------------
B:------------------------------------------------
G:------------------2--4--2--0----2--2--1-----2---
D:---4--5--4--2--0-------------4------------2------
A:------------------------------------------------
E:------------------------------------------------

E:------------------------------------------------
B:------------------------------------------------
G:-0---------------------------------------------
D:---4--2--0-------------------------------------
A:---------------------------------------------
E:------------------------------------------------


(2 veces)



. Belén, campanas de Belén?

E-------------------------------------------------------
B:------------------------------2--3-----------------------
G:--2--4--2--0--4--2--2--4--2--4------2-4--2--0------------
D:4---4------------------------------------------4--2---0-
A:---------------------------------------------------------
E:--------------------------------------------------------

De ahí se repite absolutamente Todo y al final se repite el coro dos veces

Y para acompañar a esto
Aviso: Este fichero es trabajo propio de su transcriptor y representa su interpretación personal de la canción. El material contenido en esta página es para exclusivo uso privado, por lo que se prohibe su reproducción o retransmisión, así como su uso para fines comerciales.

Califica esta canción


Comentarios en Facebook