Enviado por: Leomar625
Agrandar Letra
Reducir Letra
Imprimir






Jesus Adrian Romero, Esperame

e------7-------7----------7---------------------------
B---------------------------------------------5---4---
G--8h9-----8h9-------8h9-------8---8------------------
D---------------------------------------------7--4----
A--0-------------------------------9------------------
E----------7---------9--------------------------------

e------7---------7--------7---------------------------
B-----------------------------------------------------
G--8h9------8h9-------8h9------8--8/13----------------
D-----------------------------------------------------
A--0--------------------------------------------------
E-----------7---------9-------------------------------

?Verso 2:

A        B7          E   G#m7
  Espérame por la mañana

e-----------
B--4--5--4--
G-----------
D--4--6--4--

A       B7               C#m7
 antes de que salga el sol
        G#              A
 antes que comience el día
         F#m7         Bsus4 B E/G#
 quiero darte mi canción

A        B7            E    G#m7
  Espérame cuando las aves
A            B    G#7/C  C#m7
  aun no empiezan a cantar
        G#            Aadd2
cuando todo esta en silencio
    F#m7               Bsus4 B
yo contigo quiero hablar

?Coro:

       E        B/D#
//Espérame luz de mi corazón
   C#m7     A              F#m7
espérame estrella de la mañana
           Bsus4 B
te quiero ver
       E       B/D#
Espérame dueño de mi amor
   C#m7     A             F#m7
espérame serás mi primera cita
       Bsus4 B
ahí estaré//

?Verso 2:

A        B            E    G#m7
  Espérame desde temprano
e-----------
B--4--5--4--
G-----------
D--4--6--4--

A        B7               C#m7
  yo no quiero el día empezar
      G#            A
sin estar en tu presencia
     F#m7              Bsus4 B E/G#
sin saber que cerca estas

A        B7           E  G#m7
  Espérame que necesito

A         B   G#7/C   C#m7
  tu mirada sobre  mi
       G#          A
llenas todos mis anhelos
     F#m7         Bsus4 B
solo así puedo vivir

?Coro: (se repite dos veces)

?Final: (el punteo de la Intro)
Aviso: Este fichero es trabajo propio de su transcriptor y representa su interpretación personal de la canción. El material contenido en esta página es para exclusivo uso privado, por lo que se prohibe su reproducción o retransmisión, así como su uso para fines comerciales.
comentario del colaborador: Version mas aproximada de esta bella cancion que hay en todo Internet. La publique aqui porque en la pagina no está esta version

Califica esta canción


Comentarios en Facebook