Enviado por:
kamii17

Ciro Y Los Persas, Astros

Intro

E|----------------------------------------|
B|--8-8-8---6-6--5------8-8-8--6-6--5-----|
G|--5-5-5---5-5--5------5-5-5--5-5--5-----|
D|----------------------------------------|
A|----------------------------------------|
E|----------------------------------------|

E|----------------------------------------|
B|--8-8-8---6-6--5------8-8-8--6-6--5-----|
G|--5-5-5---5-5--5------5-5-5--5-5--5-----|
D|----------------------------------------|
A|----------------------------------------|
E|----------------------------------------|


E|-----------------------------------------|
B|-b7[9]---b7[9]-7-b7[9]-7-----------------|
G|-b7[9]---b7[9]-7-b7[9]-7-5/4h5p4---------|
D|-----------------------------------------|
A|----------------------------------/12----|
E|-----------------------------------------|



  Am
Mas de un esclavo vive en sus tierras,
  C
quieren tu sabia cuando te tenga,
  G
mas que tus soles quieren tu espanto,
  F                            E
dale tus penas para su canto.


E|---------------------------|
B|---------------------------|
G|---------------------------|
D|----3p2-3p2------3p2-3p2---|
A|---------------------------|
E|-0----------3-0------------|


 Am
y los violentos aun no se sienten,
 C
quizas te azoten cuando te encuentre,
 G
sobre su vientre estas parado,
 F                                   E
que poco el tiempo que te ha tocado.


E|---------------------------|
B|---------------------------|
G|---------------------------|
D|----3p2-3p2------3p2-3p2---|
A|---------------------------|
E|-0----------3-0------------|

  Am                         C
Bailare, bailaras, bailara otra vez,
                       G
que los astros te van a ver,
                           F
que un buen trago no viene mal,
                               E
cuando pega la vida con tanta sed.

Bailare, bailaras, bailara otra vez...


INTRO x 1

 Am
Pero las rocas siguen sangrando,
 C
y sus derrotas vos vas pagando,
 G
nadie que entienda ya de tu herida,
 F                             E
solo la noche se hizo tu amiga.


E|---------------------------|
B|---------------------------|
G|---------------------------|
D|----3p2-3p2------3p2-3p2---|
A|---------------------------|
E|-0----------3-0------------|


 Am
Y los violentos aun no se sienten,
 C
quizas te azoten cuando te encuentre,
 G
sobre su vientre estas parado,
 F                                  E
que poco el tiempo que te ha tocado.

E|---------------------------|
B|---------------------------|
G|---------------------------|
D|----3p2-3p2------3p2-3p2---|
A|---------------------------|
E|-0----------3-0------------|


 Am                         C
Bailare, bailaras, bailara otra vez,
                       G
que los astros te van a ver,
                           F
que un buen trago no viene mal,
                               E
cuando pega la vida con tanta sed.

E|---------------------------|
B|---------------------------|
G|---------------------------|
D|--2--3--2--3--2------------|
A|--2--3--2--3--2------------|
E|--0--1--0--1--0------------|


 Am                         C
Bailare, bailaras, bailara otra vez,
                       G
que los astros te van a ver,
                           F
que un buen trago no viene mal,
                               E
cuando pega la vida con tanta sed.


E|---------------------------|
B|---------------------------|
G|---------------------------|
D|----3p2-3p2------3p2-3p2---|
A|---------------------------|
E|-0----------3-0------------|


Solo

Parte 1
E|----------------------------------------------|
B|----------------------------------------------|
G|----------------------------------------------|
D|----------------------------------------------|
A|--------------5-------5---5-------------------|
E|-5-7-8--5-7-8---5-5-----5---8-5-5--8-7-8-7---4|


Parte 2

E|----------------------------------------------------------|
B|-b7[9]--b7[9]--b7[9]--b7[9]---b7[9]7---b7[9]---6--5-------|
G|-b7[9]--b7[9]--b7[9]--b7[9]---b7[9]7p5-b7[9]--b8-B7-------|
D|----------------------------------------------------------|
A|----------------------------------------------------------|
E|----------------------------------------------------------|


E|----------------------------------------------------------|
B|----------------------------------------------------------|
G|-b4[5]-4--------------------------------------------------|
D|--------7-5----------------------------------------5-5-7-7|
A|------------7/5-3-5p3----3-5----------3-3-5-5-7-7---------|
E|----------------------3-------3---3-3---------------------|

E|-----------------------------------------------------------|
B|----------B7-5---9-10-9----10-9----------------------b7[9]-|
G|--5-5-7-7-B7-5----------10------10-9-10-9h10p9/7-----b7[9]-|
D|-----------------------------------------------------------|
A|-----------------------------------------------------------|
E|-----------------------------------------------------------|


E|----------------------------------------------------------|
B|----------------------------------------------9h10p9h10p9-|
G|-4h5p4h5p4--5h7p5h7p5--7h9p7h9p7--9h10p9h10p9-------------|
D|----------------------------------------------------------|
A|----------------------------------------------------------|
E|----------------------------------------------------------|

E|----------------------------------------------------------|
B|-10h12p10h12p10-12h13p12h13p12----b15[17]-----------------|
G|-------------------------------14-------------------------|
D|----------------------------------------------------------|
A|----------------------------------------------------------|
E|----------------------------------------------------------|



 Am [Silencio]                  C
Bailare, bailaras, bailara otra vez,
                       G
que los astros te van a ver,
                           F
que un buen trago no viene mal,
                               E
cuando pega la vida con tanta sed.

Bailare, bailaras, bailara otra vez...

E|---------------------------|
B|---------------------------|
G|---------------------------|
D|--2--3--2--3--2------------|
A|--2--3--2--3--2------------|
E|--0--1--0--1--0------------|

 Am                 C
Bailaré, bailarés, bailará otra vez,
                       G
que los astros te van a ver,
                           F
que un buen trago no viene mal,
                               E
cuando pega la vida con tanta sed.

Bailaré, bailarés, bailará otra vez...


E|---------------------------|
B|---------------------------|
G|---------------------------|
D|----3p2-3p2------3p2-3p2---|
A|---------------------------|
E|-0----------3-0------------|



  Am     C    G    F
Oh, oh oh oh, oh oh oh, oooh ooh ohh

  Am     C    G    F
Oh, oh oh oh, oh oh oh,ooh ohh


E|--------------------------------|
B|--------------------------------|
G|------------------------------2-|
D|----3p2-3p2------3p2-3p2------2-|
A|------------------------------0-|
E|-0----------3-0-----------0-----|

fuente lacuerda.net
Aviso: Este fichero es trabajo propio de su transcriptor y representa su interpretación personal de la canción. El material contenido en esta página es para exclusivo uso privado, por lo que se prohibe su reproducción o retransmisión, así como su uso para fines comerciales.
comentario del colaborador: gracias por votarr ! (aunq no hayas votadoo :p jaja emmm aguante yoo ! chau .

Califica esta canción


Comentarios en Facebook