Enviado por: lol122
Agrandar Letra
Reducir Letra
Imprimir











Black Sabbath, Paranoid

PART 1
-------------5-7-----5-7------------5-7-----5-7---
---------5-7-----5-7------------5-7-----5-7-------
-4-5-5-5------------------5-5-5-------------------
--------------------------------------------------
PART 2A
----------------------------------------------------------
-------------------------------------------------5-----X--
-7-7-7-7-7-7-7-7-7-7-7-7-7-7-7-7-5-5-5-5-5-5-5-5---5-7----
---------------------------------------------------------- X2
PART 2B
----------------------------------------------------------
-------------------------------------------------5-----X--
-7-7-7-7-7-7-7-7-7-7-7-7-3-4-5-6-5-5-5-5-5-5-5-5---5-7----
----------------------------------------------------------


SOLO HASTA HAY ME LA SE
Aviso: Este fichero es trabajo propio de su transcriptor y representa su interpretación personal de la canción. El material contenido en esta página es para exclusivo uso privado, por lo que se prohibe su reproducción o retransmisión, así como su uso para fines comerciales.

Califica esta canción


Comentarios en Facebook