Enviado por:
bulinardo

No Te Va A Gustar, Pensar

El riff se toca con octavas, para hacerlas bien hay que apagar
la nota del medio con el dedo que tocas la tónica.


E|----------------------------------------------------------|
B|----------------------------------------------------------|
G|-------9--8--5--7x---------9--8--5--77x-------9--8--5--7x-|
D|---7-------------------7------------------7---------------|
A|-------7--6--3--5x---------7--6--3--55x-------7--6--3--5x-|
E|---5-------------------5------------------5---------------|

E|------------------------------------|
B|------------------------------------|
G|------------------------------------|X2
D|---77--99--1010--1111--12-1212x-----|
A|------------------------------------|
E|---55--77---88----99---10-1010x-----|


E|-----8b-------|
B|--------------| Esta nota la engancha con
G|--------------| el verso
D|--------------|
A|--------------|
E|--------------|


     Am                 Dm       G
había una vez en un pequeño país
     Am                 Dm       G
donde alguna gente se sentía feliz
     Am                 Dm       G
un alma chiquitita se quiso escapar,
     Am                 Dm       G
pero no le daba para cruzar el mar
     Am                 Dm  G
y le dijeron vas mal, muy mal,
     Am                 Dm      G
eso no se hace, tenés que pensar
     Am
y pensar...
     Dm       G          Am        Dm    G
con hambre no se puede pensar, no se puede


E|----------------------------------------------------------|
B|----------------------------------------------------------|
G|-------9--8--5--7x---------9--8--5--77x-------9--8--5--7x-|
D|---7-------------------7------------------7---------------|
A|-------7--6--3--5x---------7--6--3--55x-------7--6--3--5x-|
E|---5-------------------5------------------5---------------|

E|------------------------------------|
B|------------------------------------|
G|------------------------------------|
D|---77--99--1010--1111--12-1212x-----|
A|------------------------------------|
E|---55--77---88----99---10-1010x-----|


     Am                   Dm          G
y esperó y esperó y el momento no llegó
     Am                   Dm               G
con el correr del tiempo estaba cada vez peor
     Am    Dm       G             Am
y cedió, tiraron de la cuerda y cedió
     Dm       G             F
y ahora ya no hay vuelta atrás...
   E                  F
todo vuelve a ir para atrás...
   E                  F
ya no está consciente, atrás...
   E                  G
y ahora ya no hay vuelta atrás
    E
la realidad le miente


     Am               Dm           G
E|---5------------5--5--5--------8b8b-------|
B|-------8--5--8-----------8--5-------------|
G|------------------------------------------|
D|------------------------------------------|
A|------------------------------------------|
E|------------------------------------------|
     Am               Dm         G
E|---5-----------------------------------|
B|------8--5-----5-----------------------|
G|------------7-----7--7--5--------------|X2
D|---------------------------7--5--[5]---|
A|---------------------------------------|
E|---------------------------------------|


[sobre este verso toca este punteito raro]

un alma chiquitita se quiso escapar
pero no le daba para cruzar el mar
y le dijeron vas mal, muy muy mal
                  [silencio]
eso no se hace, tenés que pensar

  Am              Dm      G         Am
y pensar... con hambre no se puede pensar
  Dm    G     Am
no se puede pensar
  Dm       G            Am
con hambre no se puede pensar
  Dm     G
no se puede

E|----------------------------------------------------------|
B|----------------------------------------------------------|
G|-------9--8--5--7x---------9--8--5--77x-------9--8--5--7x-|
D|---7-------------------7------------------7---------------|
A|-------7--6--3--5x---------7--6--3--55x-------7--6--3--5x-|
E|---5-------------------5------------------5---------------|

E|------------------------------------|
B|------------------------------------|
G|------------------------------------|
D|---77--99--1010--1111--12-1212x-----|
A|------------------------------------|
E|---55--77---88----99---10-1010x-----|
Aviso: Este fichero es trabajo propio de su transcriptor y representa su interpretación personal de la canción. El material contenido en esta página es para exclusivo uso privado, por lo que se prohibe su reproducción o retransmisión, así como su uso para fines comerciales.

Califica esta canción


Comentarios en Facebook