Enviado por:
xosebas








Reik, Ahora Sin Ti

Ahora Sin Ti - Reik



******************************************************************************
Esta Versión Se Toca Con Dos Guitarras Como La Original Del Disco.
******************************************************************************

//////////////////////////////////////////////////////////////////////////////

NOTA: Este Intro Se Toca 3 Veces En El Primer Verso, Escuchando La Canción 
Es Mas Fácil Saber Los Tiempos En Los Que Va Cada Acorde.


INTRO = Primera Guitarra (Rítmica)

E|-------2--|--3------2--|--0------|---0--------|
A|-2-----2--|----5----3--|--0------|---0--------|
D|---4---4--|---------0--|--0------|---0--------|
G|-------4--|---------0--|----2----|------2-----|
B|-------3--|---------0--|------3--|---------3--|
e|-------2--|---------3--|------0--|---------0--|


INTRO = Segunda Guitarra (Punteo)

E|-------2--|---------3--|------4--|-------------|
A|-------2--|---------3--|--4---4--|-------------|
D|-------3--|---------5--|---6--6--|--------9-7--|
G|-4-----2--|-4-------4--|------6--|--6h7-6------|
B|--3----3--|--3------3--|------4--|-------------|
e|-------5--|----3----5--|------4--|-------------|
Aviso: Este fichero es trabajo propio de su transcriptor y representa su interpretación personal de la canción. El material contenido en esta página es para exclusivo uso privado, por lo que se prohibe su reproducción o retransmisión, así como su uso para fines comerciales.

Califica esta canción


Comentarios en Facebook