Enviado por: Anonimo
Agrandar Letra
Reducir Letra
Imprimir


Otras Versiones de Como Te Extraño Mi Amor:









Cafe Tacuba, Como Te Extraño Mi Amor

Recomiendo escuchar esta rola un par de veces para 
agarrar bien los tiempos...
	
  Intro
  E                     A 
G|---------------------|------------------------|Esto se toca 
D|14-13-11--14-13-11-11|------------------------|después de
A|--------12-----------|12-12-12-14-12-12-11-9-7|terminar la
E|---------------------|------------------------|primera estrofa
                                                 de voz y
                                                 guitarra
  A veces pienso...
  E            A            E            A 
G|------------|------------|------------|------------|
D|------2-1---|------------|------2-1---|------------|
A|----2----4-2|0-0-0--0-0-0|----2----4-2|0-0-0-0-0---|
E|0-4---------|---0------0-|0-4---------|---0-----4-2|

  Ay amor...
  E                 A            D
G|-----------------|------------|----------2||
D|-----------------|------------|---------4-||
A|-----2-2---------|0-----------|5-5---5-5--||
E|0-0-4---4-0-0-2-4|-----0----5-|----5------||

 1er solo de guitarra...
  E            A            E            A
G|------------|------------|------------|------------|
D|2-2---2-1---|------------|2-2---2-1---|------------|
A|----2----4-2|-----------2|----2----4-2|------------|
E|---4--------|55-0-555757-|---4--------|55-0-0-55542|

  Como te extraño...
  E            A            E            A
G|------------|------------|------------|------------|
D|------2-1---|-----------2|2-2---2-1---|------------|
A|-----2---4-2|0-0-0-0-0-4-|----2----4-2|0-0-0-0-0220|
E|0-0-4-------|---0--------|---4--------|---0--------|

 A veces pienso...
  E            A            E            A
G|------------|------------|------------|--------------|
D|2-2---2-1---|------7-7--4|2-2---2-1---|--------------|
A|----2----4-2|---4-7----7-|----2----4-2|---7-7-4-4-5-5|
E|---4--------|5-5---------|---4--------|5-5-----------|

  Ay amor...
  E            A            D
G|------------|------------|------------||
D|2-2---------|------------|---------4-7||
A|----2-------|0-----------|5-5---5-5---||
E|---4-0-0-2-4|-----0----5-|----5-------||

  El dolor...
  A               E         A            E
G|---------------|---------|------------|------------|
D|---------------|2-2------|------------|2-2--2-2----|
A|00--000--000—-0|------2--|0--0------0-|----2---2244|
E|--00---00---00-|----4----|-----0--0---|---4--------|


Repite el solo de guitarra...
Repite el coro...

Dudas preguntas o comentarios escribe a:
[email protected]

Fuente original: LaCuerda
Colaborador original: Israel Sánchez [[email protected]]
Aviso: Este fichero es trabajo propio de su transcriptor y representa su interpretación personal de la canción. El material contenido en esta página es para exclusivo uso privado, por lo que se prohibe su reproducción o retransmisión, así como su uso para fines comerciales.

Califica esta canción


Comentarios en Facebook