Acordes y tablaturas para guitarra

Acordes y Tablaturas
Usuario: Password:

Buscar:
Acordes y Tablaturas >> Letra N >> Acordes de No Te Va Gustar >> Memorias Del Olvido
Acordes de Memorias Del Olvido, No Te Va Gustar

Memorias Del Olvido

No Te Va Gustar






am.bm.c.d.dm.em.g.
Intro: D  Am  C  Em  Bm

D                   Am
  Me pasaron tantas cosas
C                    Em   Bm
  y no me acuerdo de nada.
D                       Am
  Sólo del viento y tus ojos.
C                   Em   Bm
  De llorar a carcajadas.

[Un solo golpe por acorde]
D                       Am
  No se cuánto habrá pasado
C                   Em   Bm
  desde cuando te leía.
D                    Am
  Nunca quise darme cuenta
C                  Em   Bm
  que no era idea mía.

     D             Am      C              Em    Bm
E|-------------------------------------------------------|
B|-------------------------------------------------------|
G|-------------------------------------------------------|
D|--5-4ds--5-4--------------4-5------------------4-5-----|
A|--------------5s3ds-----7-----7--3-2-----5-7s2-----5ds-|
E|-------------------------------------3-0---------------|


D                        Am
  Hoy no es que rompa cadenas,
C                    Em   Bm
  sólo me doy por vencido
D                 Am
  y te perdono por todo,
C                     Em   Bm
  por venir y haberte ido.

[Riff 1]           [Riff 1]
D                  Am
  Si la pena se supera
[Riff 2]               [Riff 3]
C                      Em   Bm
  a mi me importa muy poco.
[Riff 1]               [Riff 1]
D                      Am
  No esperaba que así fuera, mi amor.
[Riff 2]              [Riff 3]
C                     Em   Bm
  Si aún sueño que te toco.

G                            Dm
  No se de un tiempo a esta parte.
      Am                    Em   Bm
No entiendo cómo pude desarmarme.

     D             Am      C              Em    Bm
E|---------------------------------------------------------|
B|---------------------------------------------------------|
G|---------------------------------------------------------|
D|--5-4ds--5-4----------------4-5------------------4-5-----|
A|--------------5s3ds-------7-----7--3-2-----5-7s2-----5ds-|
E|---------------------------------------3-0---------------|


D                     Am
  Me sobraron tantas cosas
C                     Em   Bm
  que no pude darte a tiempo.
D                     Am
  O tal vez nunca exististe.
C                    Em   Bm
  Fuiste mi mejor invento.
[Riff 1]              [Riff 1]
D                     Am
  Hoy mis ojos no te ven,
[Riff 2]              [Riff 3]
C                    Em   Bm
  hoy mi boca no te nombra.
[Riff 1]                [Riff 1]
D                      Am
  Nadie sabe qué me hiciste, mi amor.
[Riff 2]               [Riff 3]
C                      Em   Bm
  Sólo mi cuerpo y tu sombra.

G                            Dm
  No se de un tiempo a esta parte.
      Am                    Em   Bm
No entiendo cómo pude desarmarme.
G                               Dm
  Yo no se de un tiempo a esta parte.
       Am                   C
No entiendo cómo pude desarmarme o cómo terminó.

     D             Am      C              Em    Bm
E|-------------------------------------------------------|
B|-------------------------------------------------------|
G|-------------------------------------------------------|
D|--5-4ds--5-4--------------4-5------------------4-5-----|
A|--------------5s3ds-----7-----7--3-2-----5-7s2---------|
E|-------------------------------------3-0---------------|

No, no, no, no. Cómo terminó.

     D             Am      C           Em
E|---------------------------------------------------------|
B|---------------------------------------------------------|
G|--------------------------------5-4----------------------|
D|--5-4ds--5-4--------------4-5----------------------------|
A|--------------5s3ds-----7-----7-----2ds------------------|
E|------------------------------------0ds------------------|


[Riff 1]

E|----5-2-3ds----|
B|--5------------|
G|---------------|


[Riff 2]            [Riff 3]

E|----3-2--------|  e|--3-2----------|
B|--5-----5ds----|  B|------3ds------|
G|---------------|  G|---------------|

Que te parecio? Calificalo con estrellas!!

Rating: 9.2/10 (26 votos)

Este fichero es trabajo propio de su transcriptor y representa su interpretación personal de la canción. El material contenido en esta página es para exclusivo uso privado, por lo que se prohibe su reproducción o retransmisión, así como su uso para fines comerciales.


Deja tus comentarios:

Letras de No Te Va Gustar
Letras de canciones | Musica Independiente