Acordes y tablaturas para guitarra

Acordes y Tablaturas
Usuario: Password:

Buscar:
Acordes y Tablaturas >> Letra C >> Acordes de Cafe tacuba >> Esa noche
Acordes de Esa noche, Cafe tacuba

Esa noche

Cafe tacuba






bm.csosm7.fsos7.fsosm.
 INTRO
E-------------------------------------------------------------|
A-------------------------------------------------------------|
D-------------------------------------------------------------|
g---2-----6-----4-----7----10---10-----7----6---4----2--------|
b-------------------------------------------------------------|
e---2-----5-----4-----7-------9----9---7----5---4----2--------|

E-------------------------------------------------------------|
A-------------------------------------------------------------|
D-------------------------------------------------------------|
g---2-----6-----4-----7----10---10-----7----6---2-------------|
b-------------------------------------------------------------|
e---2-----5-----4-----7-------9----9---7----5---2-------------|

F#m               C#m7
No me hubieras dejado esa noche
                            F#m   
porque esa misma noche encontre un amor
        F#m               C#m7
No me hubieras dejado esa noche
                            F#m   
porque esa misma noche encontre un amor

Bm                 F#m
Parecia que estaba esperando
     C#m7        F#m
tu momento de partir
     Bm                 F#m
Parecia haber observado
     C#m7        F#m
mis momentos junto a ti
       Bm              F#m
Me abrazo el instante mismo
        C#m7         F#m
que tu me dijiste adios
       Bm           F#m
y no fue una gran tristeza
         C#m7           F#7 
fue como ir de menor a mayor

F#7                   C#m7
Tu regreso habia esperado,
        Bm         F#m
mas te veias muy feliz
        Bm           F#m
en los brazos de tu amada
      C#m7         F#m
te olvidaste tu de Mi

F#7                   C#m7
mas ahora que recuerdas
Bm         F#m
a mis brazos vuelves ya
Bm           F#m
sere por siempre tu amada
C#m7         F#m
tu novia la soledad

F#7                   C#m7
y si alguna vez regresas
Bm         F#m
con aquella que te amo
Bm           F#m
sabes? no sera lo mismo
C#m7         F#m
pues tambien me conocio

F#m               C#m7
No me hubieras dejado esa noche
F#m
porque esa misma noche encontre un amor
F#m               C#m7
Mi soledad, siempre he pertencido a ti
					F#m
Ay! soledad, siempre he pertenecido a ti.

Bueno aqui termina la cancion espero que les haya gustado
y si tienen alguna queja o sugerencia mandenmela
porfavor a mi mail.

Fuente original: LaCuerda
Colaborador original: Alberto Montoya Cuen [[email protected]]

Que te parecio? Calificalo con estrellas!!

Rating: 7.5/10 (175 votos)

Este fichero es trabajo propio de su transcriptor y representa su interpretación personal de la canción. El material contenido en esta página es para exclusivo uso privado, por lo que se prohibe su reproducción o retransmisión, así como su uso para fines comerciales.


Deja tus comentarios:

Letras de Cafe tacuba
Letras de canciones | Musica Independiente