Enviado por: hanuman153
Agrandar Letra
Reducir Letra
Imprimir






Slipknot, Before I Forget

Bueno.. aca les traigo mi tercer post.. q es de nuevo del grupo
slipknot... es un tema xvr espero q les salga!;)
Afinacion: B G C F A D
Intro:

D|---------------------------------------------------
A|---------------------------------------------------
F|---------------------------------------------------  (7x)
C|-0h2-x-0h2-x 3p2-x-0h2-x-2h3p2---------------------
G|-0h2-x-0h2-x 3p2-x-0h2-x-2h3p2---------------------
B|-0h2-x-0h2-x 3p2-x-0h2-x-2h3p2---------------------

D|---------------------------------------------------
A|---------------------------------------------------
F|---------------------------------------------------
C|-0h2-x-0h2-x-3p2-- 5-5-0-0-5-5-0-0-----------------
G|-0h2-x-0h2-x-3p2-- 5-5-0-0-5-5-0-0-----------------
B|-0h2-x-0h2-x-3p2--?5-5-0-0-5-5-0-0-----------------

Go!

D|---------------------------------------------------
A|---------------------------------------------------
F|---------------------------------------------------  (3x)
C|-0h2-x-0h2-x 3p2-x-0h2-x-2h3p2---------------------
G|-0h2-x-0h2-x 3p2-x-0h2-x-2h3p2---------------------
B|-0h2-x-0h2-x 3p2-x-0h2-x-2h3p2---------------------

D|---------------------------------------------------
A|---------------------------------------------------
F|---------------------------------------------------
C|-0h2-x-0h2-x 3p2-- 5-5-0-0-------------------------
G|-0h2-x-0h2-x 3p2-- 5-5-0-0-------------------------
B|-0h2-x-0h2-x 3p2--?5-5-0-0-------------------------

D|---------------------------------------------------
A|---------------------------------------------------
F|---------------------------------------------------  (3x)
C|-0h2-x-0h2-x 3p2-x-0h2-x-2h3p2---------------------
G|-0h2-x-0h2-x 3p2-x-0h2-x-2h3p2---------------------
B|-0h2-x-0h2-x 3p2-x-0h2-x-2h3p2---------------------

D|---------------------------------------------------
A|---------------------------------------------------
F|---------------------------------------------------
C|-0h2-x-0h2-x-3p2-x 5-5-0-0-5-5-0-0-----------------
G|-0h2-x-0h2-x-3p2-x 5-5-0-0-5-5-0-0-----------------
B|-0h2-x-0h2-x-3p2-x?5-5-0-0-5-5-0-0-----------------


Primera parte:

Stapled shut, inside an outside world and I\'m
Sealed in tight, bizarre but right at home
Claustrophobic, closing in and I\'m
Catastrophic, not again
I\'m smeared across the page, and doused in gasoline
I wear you like a stain, yet I\'m the one who\'s obscene
Catch me up on all your sordid little insurrections,
I\'ve got no time to lose,
And I\'m just caught up in all the cattle
Riff - Primeira parte:

Parte 1 de 2 - 3x:
D|---------------------------------------------------
A|---------------------------------------------------
F|---------------------------------------------------
C|-2-2-2-2-3---2-2-2-3-------------------------------
G|-2-2-2-2-3---2-2-2-3-------------------------------
B|-2-2-2-2-3---2-2-2-3-------------------------------
  P.M. . . .   . . .

Parte 2 de 2
D|---------------------------------------------------
A|---------------------------------------------------
F|---------------------------------------------------
C|-2-2-2-2-3----5-5-0-0------------------------------
G|-2-2-2-2-3----5-5-0-0------------------------------
B|-2-2-2-2-3----5-5-0-0------------------------------
  P.M. . .

Parte 1 de 2 - 3x:
D|---------------------------------------------------
A|---------------------------------------------------
F|---------------------------------------------------
C|-2-2-2-2-3---2-2-2-3-------------------------------
G|-2-2-2-2-3---2-2-2-3-------------------------------
B|-2-2-2-2-3---2-2-2-3-------------------------------
  P.M. . . .   . . .

Parte 2 de 2
D|---------------------------------------------------
A|---------------------------------------------------
F|---------------------------------------------------
C|-2-2-2-2-3----5-5-0-0------------------------------
G|-2-2-2-2-3----5-5-0-0------------------------------
B|-2-2-2-2-3----5-5-0-0------------------------------
  P.M. . .


Segunda Parte:

Fray the strings
Throw the shapes
Hold your breath
Listen!
Riff - Segunda Parte:

(Guitarra 1)
   H.A      .          .           .         .
D|---------------------------------------------------
A|---------------------------------------------------
F|---------------------------------------------------
C|-2-2-3-2-----2-2-3-2----2-2-3-2----2-2-3-2---------
G|-2-2-3-2--4--2-2-3-2----2-2-3-2--4-2-2-3-2-2-------
B|-2-2-3-2-----2-2-3-2-2--2-2-3-2----2-2-3-2-2-------

(Guitarra 2)
D|---------------------------------------------------
A|---------------------------------------------------
F|-9--12--11--10--9--\\-------------------------------
C|-------------------\\-------------------------------
G|-7--10--9---8---7--\\-------------------------------
B|---------------------------------------------------

(Guitarra 3)
  H.A.      .      .      .
D|---------------------------------------------------
A|---------------------------------------------------
F|---------------------------------------------------
C|---------------------------------------------------
G|---------------------------------------------------
B|--5-------2------5------2---------------------------

(Guitarra Adaptada)
  H.A.   ...       ...       ...         .
D|---------------------------------------------------
A|---------------------------------------------------
F|---------------------------------------------------
C|-2-2-3-----2-2-3-----2-2-3-----2-2-3-0-2-----------
G|-2-2-3--4--2-2-3-----2-2-3-5-4-2-2-3-0-2-----------
B|-2-2-3-5---2-2-3-2-2-2-2-3-----2-2-3-0-2-----------


coro:
I am a worm before I am a man
I was a creature before I could stand
I will remember before I forget
BEFORE I FORGET THAT!

I am a worm before I am a man
I was a creature before I could stand
I will remember before I forget
BEFORE I FORGET THAT!
(Guitarra 1)
D|---------------------------------------------------
A|---------------------------------------------------
F|---------------------------------------------------
C|-2--3-2-5--0--5--0-7~--2--3-2-5--0--5--0-8p7-------
G|-2--3-2-5--0--5--0-7~--2--3-2-5--0--5--0-8p7-------
B|-2--3-2-5--0--5--0-7~--2?-3-2-5--0--5--0-8p7-------

D|---------------------------------------------------
A|---------------------------------------------------
F|---------------------------------------------------
C|-2--3-2-5--0--5--0-8--7--7--7--8-7-10-5-5-5-8-8\\7--
G|-2--3-2-5--0--5--0-8--7--7--7--8-7-10-5-5-5-8-8\\7--
B|-2?-3-2-5-?0--5--0-8--7--7--7--8-7-10-5-5-5-8-8\\7--

D|---------------------------------------------------
A|---------------------------------------------------
F|---------------------------------------------------
C|-2--3-2-5--0--5--0-7~--2--3-2-5--0--5--0-8p7-------
G|-2--3-2-5--0--5--0-7~--2--3-2-5--0--5--0-8p7-------
B|-2--3-2-5--0--5--0-7~--2?-3-2-5--0--5--0-8p7-------

D|---------------------------------------------------
A|---------------------------------------------------
F|------------------9--9---9-10-9-12-7-7-7-10-10\\9---
C|-2--3-2-5-0-5-0-8----------------------------------
G|-2--3-2-5-0-5-0-8 7--7--7--8--7-10-5-5-5-8--8-\\7---
B|-2--3-2-5-0-5-0-8----------------------------------

(Intro)

D|---------------------------------------------------
A|---------------------------------------------------
F|---------------------------------------------------  (3x)
C|-0h2-x-0h2-x 3p2-x-0h2-x-2h3p2---------------------
G|-0h2-x-0h2-x 3p2-x-0h2-x-2h3p2---------------------
B|-0h2-x-0h2-x 3p2-x-0h2-x-2h3p2---------------------

D|---------------------------------------------------
A|---------------------------------------------------
F|---------------------------------------------------
C|-0h2-x-0h2-x 3p2-- 5-5-0-0-------------------------
G|-0h2-x-0h2-x 3p2-- 5-5-0-0-------------------------
B|-0h2-x-0h2-x 3p2--?5-5-0-0-------------------------


(Primera parte)

(Riff Primera parte)
I\'m ripped across the ditch, and settled in the dirt and
I wear you like a stitch, yet I\'m the one who\'s hurt
Pay attention to your twisted little indiscretions
I\'ve got no right to win, I\'m just caught up all the battles

(Segunda parte)

(Riff Segunda parte)
Locked in clutch
Pushed in place
Hold your breath
Listen!

(coro)

I am a worm before I am a man
I was a creature before I could stand
I will remember before I forget
BEFORE I FORGET THAT!

I am a world before I am a man
I was a creature before I could stand
I will remember before I forget
BEFORE I FORGET THAT!

(Instrumental)
Tercera parte:

(Guitarra 1)
D|--------------------------------------------------
A|--------------------------------------------------
F|--------------------------------------------------
C|-5-5-5-5-5-5-5-4--4-5-5-5-5-5-5-4-5-5-5-5-5-5-4-5-
G|--------------------------------------------------
B|--------------------------------------------------

D|--------------------------------------------------
A|--------------------------------------------------
F|--------------------------------------------------
C|-5-7--5-5-4--5-5-5-5-5-5-4--5-5-5-5-5-5-4---------
G|--------------------------------------------------
B|--------------------------------------------------

D|--------------------------------------------------
A|--------------------------------------------------
F|--------------------------------------------------
C|--5-5-5-5-5-5-4--5-5-7-5--------------------------
G|--------------------------------------------------
B|--------------------------------------------------

D|--------------------------------------------------
A|--------------------------------------------------
F|--------------------------------------------------
C|-/12--10-10-9-7-7/-10-10-9-9-7-7-5-5-7-7----------
G|--------------------------------------------------
B|--------------------------------------------------

D|--------------------------------------------------
A|--------------------------------------------------
F|--------------------------------------------------
C|-5-4/-7--5-4--5-5-4-5-5-5-5-5-5-5-4-5-5-5-5-5-5-4-
G|--------------------------------------------------
B|--------------------------------------------------

D|--------------------------------------------------
A|--------------------------------------------------
F|--------------------------------------------------
C|-5-5-5-5-5-5-5-7---5-5-9\\-------------------------
G|--------------------------------------------------
B|--------------------------------------------------


Tercera Parte:

My end
It justifies my means
All I ever do is delay
My every attempt to evade
The end of the road and my end
It justifies my means
All I ever do is delay
My every attempt to evade
THE END OF THE ROAD!
D|--------------------------------------------------
A|--------------------------------------------------
F|--------------------------------------------------
C|--------------------------------------------------
G|--0-2-0-2-3-2-0-2-0-2-0-2-3-2-0-2-----------------
B|--------------------------------------------------

D|--------------------------------------------------
A|--------------------------------------------------
F|--------------------------------------------------
C|--------------------------------------------------
G|--2-3-2-3-2-3-2-3-0-2-0-2-3-2-0-2-----------------
B|--------------------------------------------------

D|--------------------------------------------------
A|--------------------------------------------------
F|--------------------------------------------------
C|--------------------------------------------------
G|--2-3-2-3-5-3-2-3-2-3-2-3-5-3-2-3-----------------
B|--------------------------------------------------

(Guitarra 2 - 2x)
D|--------------------------------------------------
A|--------------------------------------------------
F|--------------------------------------------------
C|--------------------------------------------------
G|-3-3-3-3-3-3-5?0-0-0-0-0-0-2--2-2-2-2-2-----------
B|-3-3-3-3-3-3-5?0-0-0-0-0-0-2--2-2-2-2-2-----------

D|--------------------------------------------------
A|--------------------------------------------------
F|--------------------------------------------------
C|--------------------------------------------------
G|-2?2-2-5---2-5------------------------------------
B|--------------------------------------------------

(Variacion)
D|--------------------------------------------------
A|--------------------------------------------------
F|--------------------------------------------------
C|-4-4-4-7---4-7------------------------------------
G|-2?2-2-5---2-5------------------------------------
B|--------------------------------------------------


(Repite guitarra 2 instrumental)

(coro)

I am a worm before I am a man
I was a creature before I could stand
I will remember before I forget
BEFORE I FORGET THAT!

I am a worm before I am a man
I was a creature before I could stand
I will remember before I forget
BEFORE I FORGET THAT!

I am a worm before I am a man
I was a creature before I could stand
I will remember before I forget
BEFORE I FORGET THAT!

(Riff introducion)
Yeah, yeah, yeah, yeah
Yeah, yeah, yeah, OH!
D|---------------------------------------------------
A|---------------------------------------------------
F|---------------------------------------------------  (7x)
C|-0h2-x-0h2-x 3p2-x-0h2-x-2h3p2---------------------
G|-0h2-x-0h2-x 3p2-x-0h2-x-2h3p2---------------------
B|-0h2-x-0h2-x 3p2-x-0h2-x-2h3p2---------------------

D|---------------------------------------------------
A|---------------------------------------------------
F|---------------------------------------------------
C|-0h2-x-0h2-x-3p2-- 5-5-0-0-5-5-0-0-----------------
G|-0h2-x-0h2-x-3p2-- 5-5-0-0-5-5-0-0-----------------
B|-0h2-x-0h2-x-3p2--?5-5-0-0-5-5-0-0-----------------

Gracias!! Comenten =D xD
Aviso: Este fichero es trabajo propio de su transcriptor y representa su interpretación personal de la canción. El material contenido en esta página es para exclusivo uso privado, por lo que se prohibe su reproducción o retransmisión, así como su uso para fines comerciales.

Califica esta canción


Comentarios en Facebook