Acordes y tablaturas para guitarra

Acordes y Tablaturas
Usuario: Password:

Buscar:
Acordes y Tablaturas >> Letra M >> Acordes de Muse >> Uprising
Tablatura de Uprising, Muse

Uprising

Muse






INTRO:

   Dm     A#           A Dm          A#         A               
e|-5v--------------------5v----------6v-8-s-3-s-5-|
B|---6v---------------------6v--------------------|
G|-----------------------------7v-----------------|
D|-----7v--8v--8-s-5-s-7------------7v------------|
A|------------------------------------------------|
E|------------------------------------------------|

   Dm        A#         A  Dm       Gm        Cm Dm                                          
e|-5-----5---6--8-s-3-s-5--5-----5---------------13-13-|
B|--6---6-------------------6---6---8-6-s-5-s-6--15-15-|
G|---7-7---7-----------------7-7--7--------------14-14-|
D|----7-----------------------7------------------------|
A|-----------------------------------------------------|
E|-----------------------------------------------------|

Que te parecio? Calificalo con estrellas!!

Rating: 6.2/10 (27 votos)

Este fichero es trabajo propio de su transcriptor y representa su interpretación personal de la canción. El material contenido en esta página es para exclusivo uso privado, por lo que se prohibe su reproducción o retransmisión, así como su uso para fines comerciales.


Deja tus comentarios:
Letras de canciones | Musica Independiente