Acordes y tablaturas para guitarra

Acordes y Tablaturas
Usuario: Password:

Buscar:
Acordes y Tablaturas >> Letra T >> Acordes de Twisted Sister >> I Wanna Rock
Tablatura de I Wanna Rock, Twisted Sister

I Wanna Rock

Twisted Sister






I WANNA ROCK                     TWISTED SISTER
Intro:
I WANNA ROCK!
(ROCK)
e---------------------------------
B---------------------------------
G--2--------------7-7777----------
D--2-------5-555--7-7777----------
A--0-------5-555--5-5555----2-5---
E----------3-333------------0-3---
I WANNA ROCK    (ROCK)
e----------------------------------
B----------------------------------
G--2-2-------------7-7777---9-5----
D--2-2------5-555--7-7777---9-5----
A--0-0------5-555--5-5555---7-3----
E-----------3-333------------------
I WANNA   TO ROCK     (ROCK)
e----------------------------------
B----------------------------------
G--2-2-------------7-7777----------
D--2-2------5-555--7-7777----------
A--0-0------5-555--5-5555----2-5---
E-----------3-333------------0-3---
I WANNA ROCK    (ROCK)
e----------------------------------
B----------------------------------
G--2-2-------------7-7777---9-5-2--
D--2-2------5-555--7-7777---9-5-2--
A--0-0------5-555--5-5555---7-3-0--
E-----------3-333------------------
but all i got to say to you is time and time again i say no!
NO!NO!NO!
e---------------------------
B---------------------------
G--2------------77---2------
D--2-------55---77---2------
A--0-------55---55---0------
E----------33---------------
tell me not to play
well, all i got to say to when you tell me not to play i say no!
no! no! no!
e-----------------------------
B-----------------------------
G--2------------77---2-----7--
D--2-------55---77---2---5-7--
A--0-------55---55---0---5-5--
E----------33------------3----
so, if you ask me why i like the way i play it
e----------------------
B----------------------
G------------7-7-7-7---
D---5-5-5-5--7-7-7-7---
A---5-5-5-5--5-5-5-5---
E---3-3-3-3------------
there's only one thing i can say to you
e------------------------
B------------------------
G-------------5------2---
D---5-5-5-5---5----5?2---
A---5-5-5-5?3-3----5?0---
E---3-3-3-3-----3--3-----
I WANNA ROCK!
(ROCK)
e---------------------------------
B---------------------------------
G--2--------------7-7777----------
D--2-------5-555--7-7777----------
A--0-------5-555--5-5555----2-5---
E----------3-333------------0-3---
I WANNA ROCK   (ROCK)
e----------------------------------
B----------------------------------
G--2-2-------------7-7777---9-5----
D--2-2------5-555--7-7777---9-5----
A--0-0------5-555--5-5555---7-3----
E-----------3-333------------------
I WANNA  TO  ROCK   (ROCK)
e----------------------------------
B----------------------------------
G--2-2-------------7-7777----------
D--2-2------5-555--7-7777----------
A--0-0------5-555--5-5555----2-5---
E-----------3-333------------0-3---
I WANNA ROCK   (ROCK)
e----------------------------------
B----------------------------------
G--2-2-------------7-7777---9-5-2--
D--2-2------5-555--7-7777---9-5-2--
A--0-0------5-555--5-5555---7-3-0--
E-----------3-333------------------
i get from nothin' else and there ain't nothin' in the world that makes me go!
go! go! go!
e---------------------------
B---------------------------
G--2------------77---2------
D--2-------55---77---2------
A--0-------55---55---0------
E----------33---------------
i've waited for so long so i could hear my favorite song so, let's go!
go! go! go!
e-----------------------------
B-----------------------------
G--2------------77---2-----7--
D--2-------55---77---2---5-7--
A--0-------55---55---0---5-5--
E----------33------------3----
when it's like this i feel the music shootin' through me
e----------------------
B----------------------
G------------7-7-7-7---
D---5-5-5-5--7-7-7-7---
A---5-5-5-5--5-5-5-5---
E---3-3-3-3------------
there's nothin' else that i would rather do
e------------------------
B------------------------
G-------------5------2---
D---5-5-5-5---5----5?2---
A---5-5-5-5?3-3----5?0---
E---3-3-3-3-----3--3-----
I WANNA ROCK!
(ROCK)
e---------------------------------
B---------------------------------
G--2--------------7-7777----------
D--2-------5-555--7-7777----------
A--0-------5-555--5-5555----2-5---
E----------3-333------------0-3---
I WANNA ROCK   (ROCK)
e----------------------------------
B----------------------------------
G--2-2-------------7-7777---9-5----
D--2-2------5-555--7-7777---9-5----
A--0-0------5-555--5-5555---7-3----
E-----------3-333------------------
I WANNA   TO ROCK   (ROCK)
e----------------------------------
B----------------------------------
G--2-2-------------7-7777----------
D--2-2------5-555--7-7777----------
A--0-0------5-555--5-5555----2-5---
E-----------3-333------------0-3---
I WANNA ROCK   (ROCK)
e----------------------------------
B----------------------------------
G-*-2--------------7-7777---9-5----
D-*-2-------5-555--7-7777---9-5----
A-*-0-------5-555--5-5555---7-3----
E-----------3-333------------------
I wanna rock!(rock!)
rock!(rock!)
rock!(rock!)
e-----------------------
B-----------------------
G-?2---2---2---2--------
D--2---2---2---2--------
A-?0---0---0---0---2-5--
E------------------0-3--
I wanna rock!(rock!)
rock!(rock!)
rock!(rock!)
e---------------------
B---------------------
G-?2---2---2-----9-5--
D--2---2---2-----9-5--
A-?0---0---0-----7-3--
E---------------------
i want to rock!(rock!)
rock!(rock!)
rock!(rock!)
e----------------------
B----------------------
G-?2---2---2-----------
D--2---2---2-----------
A-?0---0---0------2-5--
E-----------------0-3--
I wanna rock!(rock!)
rock!(rock!)
rock!(rock!)
e---------------------
B---------------------
G-?2---2---2-----9-5--
D--2---2---2-----9-5--
A-?0---0---0-----7-3--
E---------------------
i wanna rock!
Solo:
e----------------------------------------------------------------------------------
B--------------------------------------------------------13h15p13----13-15bvvvvvv--
G?12b-p10?12b---12b?p10?12b---14p12----12-------------------------14---------------
D-----------------------------------14---14p12---12--------------------------------
A-?--------------------------------------------15---15-----------------------------
E----------------------------------------------------------------------------------
e-----------------------------12tr15tr12?15b-15b?15b-p12--12-15-12--12-------------
B-15b-p13----13----13-15-13-----------------------------15--------15--15-13-15-13--
G?---------14--14----------14---------------------------------------------------14-
D----------------------------------------------------------------------------------
A-?--------------------------------------------------------------------------------
E----------------------------------------------------------------------------------
e-----17-17------17-17-----17---17h20p17--17-------17------17---17-----17----------
B-20b-------20b--------20b--------------20------17-------17---17-----17?20b--------
G?-------------------------------------------19b------19b---19b---19b--------------
D----------------------------------------------------------------------------------
A-?--------------------------------------------------------------------------------
E----------------------------------------------------------------------------------
I WANNA ROCK!
(ROCK)
e---------------------------------
B---------------------------------
G--2--------------7-7777----------
D--2-------5-555--7-7777----------
A--0-------5-555--5-5555----2-5---
E----------3-333------------0-3---
I WANNA ROCK!
(ROCK)
e--------------------------------
B--------15b15b--13--------------
G--2----------------14---9-5-----
D--2---------------------9-5-----
A--0---------------------7-3-----
E--------------------------------
I WANNA   TO ROCK     (ROCK)
e-------------------------------------
B-------------------------------------
G--2-2----------------5-7-5-7b-7b-7b--
D--2-2------5-555?5/7-----------------
A--0-0------5-555---------------------
E-----------3-333---------------------
I WANNA ROCK    (ROCK)
e---------------------------------------
B---------------------------------20----
G--2-2-----------------17-19-17-19--19b-
D--2-2------5-55?17/19------------------
A--0-0------5-55------------------------
E-----------3-33------------------------
I wanna rock!(rock!)
rock!(rock!)
rock!(rock!)
e-----------------------
B-----------------------
G-?2---2---2---2--------
D--2---2---2---2--------
A-?0---0---0---0---2-5--
E------------------0-3--
I wanna rock!(rock!)
rock!(rock!)
rock!(rock!)
e---------------------
B---------------------
G-?2---2---2-----9-5--
D--2---2---2-----9-5--
A-?0---0---0-----7-3--
E---------------------
i want to rock!(rock!)
rock!(rock!)
rock!(rock!)
e----------------------
B----------------------
G-?2---2---2-----------
D--2---2---2-----------
A-?0---0---0------2-5--
E-----------------0-3--
I wanna rock!(rock!)
rock!(rock!)
rock!(rock!)
e---------------------
B---------------------
G-?2---2---2-----9-5--
D--2---2---2-----9-5--
A-?0---0---0-----7-3--
E---------------------

Que te parecio? Calificalo con estrellas!!

Rating: 8.3/10 (29 votos)

Este fichero es trabajo propio de su transcriptor y representa su interpretación personal de la canción. El material contenido en esta página es para exclusivo uso privado, por lo que se prohibe su reproducción o retransmisión, así como su uso para fines comerciales.


Comentario de danielcc32
espero que les guste esta cancion es la primera que ago,es una cancion muy facil SUERTE!
Deja tus comentarios:
Letras de canciones | Musica Independiente