Acordes y tablaturas para guitarra

Acordes y Tablaturas
Usuario: Password:

Buscar:
Acordes y Tablaturas >> Letra R >> Acordes de Romeo Santos >> LLEVAME CONTIGO
Acordes de LLEVAME CONTIGO, Romeo Santos

LLEVAME CONTIGO

Romeo Santos






a.bm.d.e.e7.fsosm.
CAPO 1ER TRASTE

Intro

e||------9-9--7-7h5--5-5s4--4-4h5--------2-2-4-5-7s11----------|
B||------------------------------------------------------------|
G||------------------------------------------------------------|


e||-----10-10--9-9--7-7--5s7-----------------------------------|
B||------------------------------------------------------------|
G||------------------------------------------------------------|


e||------9-9--7-7h5--5-5s4--4-4h5--------2-2-4-5-7-------------|
B||------------------------------------------------7-----------|
G||------------------------------------------------------------|


e||-----10-10--9-9--7-7--5--7s9-7------------------------------|
B||------------------------------------------------------------|
G||------------------------------------------------------------|



   A              E                       F#m
No se, si has cambiado de opinión y no te vas
        E                    D
Si tu vuelo de las 3 cancelaras
          Bm
Como mi invento arte de Magia
      E                    E7
Como logro que me ames mucho más,


           A           E                      F#m
Se que tal vez, no lo digas pero me ves un llorón
        E                   D
Ese maldito viaje ya se confirmo
         Bm                     E
Solo recuerda si me dejas no se vale
               E7
Te sugiero por favor



Coro:

           A 
Llévame contigo
                   E
Que no aguanto la aflicción,
           D
Llévame contigo
                    E
No seas malita y no no no
            A 
Llévame contigo
                   E
Y si te vas de vacación,
            D
Llévame contigo
                    E
Aunque sea de chaperón
            F#m
Llévame contigo
              E
O habrá desolación
            D
Llévame contigo
                 E
Ponle fin a mi temor
   F#m    E      D  A        E    Bm    E
Donde se fue tu amor para buscarlo rápido!


Intermedio:

e||----------------------------|
B||--7s9--7--5h7-5h7-5h7-------| x3
G||----------------------------|

e||----------0h5*********------|esta parte es rapidisima y repetida
B||--7s9--7--------------------|
G||----------------------------|


e||---7s9--7--5h7-5h7-5h7------|
B||----------------------------| x2
G||----------------------------|


e||----------------------------|
B||---7-9-9s10--9-7--5-5h7-5---|
G||----------------------------|


     A 
Para ti
         E                      F#m
Hasta siempre te amare fue un refrán
           E                     D
Y el matrimonio un papel que romperás
           Bm
Si es que acaso queda un poco
   E                   E7
De Carińito regáladme tu amistad,

[please Please]



Coro:

           A 
Llévame contigo
                   E
Que no aguanto la aflicción,
           D
Llévame contigo
                    E
No seas malita y no no no
            A 
Llévame contigo
                   E
Y si te vas de vacación,
            D
Llévame contigo
                    E
Aunque sea de chaperón
            F#m
Llévame contigo
              E
O habrá desolación
            D
Llévame contigo
                 E
Ponle fin a mi temor
   F#m    E      D  A        E    Bm    E
Donde se fue tu amor para buscarlo rápido!


e||------9-9--7-7h5--5-5s4--4-4h5-----7h9******-|
B||---------------------------------------------|
G||---------------------------------------------|

[Lora Guitarra]

e||-----10-10--9-9--7-7--5s7---7v-7v-7v-7v------|
B||---------------------------------------------|
G||---------------------------------------------|

[Loraaaa..!!]

e||------9-9-11-9-7-7-9-7-5---------5-5h7-------|
B||-----------------------------7-9-------7-----|
G||---------------------------------------------|


e||-----10-10--9-9--7-7--5--7s9-7---------------|
B||---------------------------------------------|
G||---------------------------------------------|


Final

             dale mami    stand me buts ok...

e||-4s5-4s5-4s5-4s5-4s5-4s5-4s5-4s5-4s5-5s7-5s7-5s7-|
B||-------------------------------------------------|
G||-------------------------------------------------|


   take me with you tomorrow, take and I wont brother

e||-4s5-4s5-4s5-4s5-4s5-4s5-4s5-4s5-4s5-5s7-5s7-5s7-|
B||-------------------------------------------------|
G||-------------------------------------------------|


   take me with you tomorrow, take and I wont brother

e||-4s5-4s5-4s5-4s5-4s5-4s5-4s5-4s5-4s5-5s7-5s7-5s7-|
B||-------------------------------------------------|
G||-------------------------------------------------|


   take me take me take me take me take me with you

e||-4s5-4s5-4s5-4s5-4s5-4s5-4s5-4s5-4s5-5s7-5s7-5s7-|
B||-------------------------------------------------|
G||-------------------------------------------------|


    tomorrow tomorrow tomorrow tomorrow tomorrow

e||-4s5-4s5-4s5-4s5-4s5-4s5-4s5-4s5-4s5-5s7-5s7-5s7-|
B||-------------------------------------------------|
G||-------------------------------------------------|


    you need this in your life.

e||-4s5-4s5-4s5-4s5-4s5-4s5-4s5-4s5-4s5-5s7-5s7-5s7-|
B||-------------------------------------------------|
G||-------------------------------------------------|

Que te parecio? Calificalo con estrellas!!

Rating: 7.7/10 (46 votos)

Este fichero es trabajo propio de su transcriptor y representa su interpretación personal de la canción. El material contenido en esta página es para exclusivo uso privado, por lo que se prohibe su reproducción o retransmisión, así como su uso para fines comerciales.


Deja tus comentarios:
Letras de canciones | Musica Independiente