Enviado por: TADBY13
Agrandar Letra
Reducir Letra
Imprimir


Otras Versiones de Quien De Los Dos Sera:




Diego Verdaguer, Quien De Los Dos Sera

G                  D                   Am
1|----8--7-7---7-7-7-10-12--------7-7-7-10-12-------------|
2|------------------------12-10--------------12-10-8-10---|
3|-7------------------------------------------------------|
4|--------------------------------------------------------|
5|--------------------------------------------------------|
6|--------------------------------------------------------|
                C            G
1|--------------------------------------------------------|
2|-8-8-8-5-8-12-10--11/12-10-10---------------------------|
3|--------------------------------------------------------|
4|--------------------------------------------------------|
5|--------------------------------------------------------|
6|--------------------------------------------------------|

  esta parte la tocan con el violin
          D                     Am                  C                     G
1|-6--7-7-7-10-12------|--7-7-7-10-12-----------|----------------|------|
2|---------------12-10-|-------------12-10-8-10-|-8-8-8-5-8-12-8-|-10--8|
3|---------------------|------------------------|----------------|------|

                     D     Am
Estoy a punto de estallar
                         C     G
estoy pensando solo en ella
                     D     Am
mi alma quiere sollozar
                        C     G
pero mi orgullo no la deja
                     D     Am
1|-7---7---7---7---7---|-5---5---5---5---5---|
2|--8---8---8---8---8--|--7---7---7---7---7--|
3|---7---7---7---7---7-|---7---7---7---7---7-|
          dolor que tengo que aguantar
                    C
1|-8----8---8---8----8----|-8---8---8---8---8---|
2|--10---10--10--10---10--|--8---8---8---8---8--|
3|----9----9---9---9----9-|---9---9---9---9---9-|
                porque no quise retenerla.
G                           D
Nooooo, no sé quién de los dos será
                  Am
quién se pueda rendir por fin
                   C           G
y que corra la historia sin rencor
                    D
no sé quién de los dos será
                   Am
quién se muera por la ansiedad
                C                  G     D
de volver a la gloria de nuestro amooooor
            Am     C     G
de nuestro amor.

                  D     Am
Yo lo podría resolver
                        C     G
pero es de dos este problema
                       D     Am
1|-7---7---7---7---7---|-5---5---5---5---5---|
2|--8---8---8---8---8--|--7---7---7---7---7--|
3|---7---7---7---7---7-|---7---7---7---7---7-|
            y no sé quién dirá perdón
                        C
1|-8----8---8---8----8----|-8---8---8---8---8---|
2|--10---10--10--10---10--|--8---8---8---8---8--|
3|----9----9---9---9----9-|---9---9---9---9---9-|
               para arrancarnos esta pena.

          G                           D
No, nooo, nooooo, no sé quién de los dos será
                  Am
quién se pueda rendir por fin
                   C           G
y que corra la historia sin rencor
                    D
no sé quién de los dos será
                    Am
quién se muera por la ansiedad
                C                  G
de volver a la gloria de nuestro amooooor

            D
1|-7---7---7---7---7---|-5---5---5---5---5---|
2|--8---8---8---8---8--|--7---7---7---7---7--|
3|---7---7---7---7---7-|---7---7---7---7---7-|
           Triste sin ella estoy
      Am
1|-8----8---8---8----8----|-8---8---8---8---8---|
2|--10---10--10--10---10--|--8---8---8---8---8--|
3|----9----9---9---9----9-|---9---9---9---9---9-|
            y me mata el dolor
       C                      G     D
1|-7---7---7---7---7---|-5---5---5---5---5---|
2|--8---8---8---8---8--|--7---7---7---7---7--|
3|---7---7---7---7---7-|---7---7---7---7---7-|
y no quiero no, no quiero lloraaaaaaaaaar
         Am     C
1|-8----8---8---8----8----|-8---8---8---8---8---|
2|--10---10--10--10---10--|--8---8---8---8---8--|
3|----9----9---9---9----9-|---9---9---9---9---9-|
  no, no, nooooo.

 G                           D
1|-7---7---7---7---7---|-5---5---5---5---5---|
2|--8---8---8---8---8--|--7---7---7---7---7--|
3|---7---7---7---7---7-|---7---7---7---7---7-|
Nooooo, no sé quién de los dos será
                   Am
1|-8----8---8---8----8----|
2|--10---10--10--10---10--|
3|----9----9---9---9----9-|
quién se muera por la ansiedad
                C                  G
            1|-8--|
            2|-8--|
            3|-9--|
de volver a la gloria de nuestro amor. 

UN SALUDO A TODOS
Aviso: Este fichero es trabajo propio de su transcriptor y representa su interpretación personal de la canción. El material contenido en esta página es para exclusivo uso privado, por lo que se prohibe su reproducción o retransmisión, así como su uso para fines comerciales.

Califica esta canción


Comentarios en Facebook